  0
SECTION
  2
HEADER
  9
$ACADVER
  1
AC1027
  9
$ACADMAINTVER
 70
   105
  9
$DWGCODEPAGE
  3
ANSI_1252
  9
$LASTSAVEDBY
  1
tim
  9
$REQUIREDVERSIONS
160
                 0
  9
$INSBASE
 10
0.0
 20
0.0
 30
0.0
  9
$EXTMIN
 10
1.817818509564138
 20
0.0
 30
0.0
  9
$EXTMAX
 10
34.1833
 20
35.99997480180575
 30
0.0
  9
$LIMMIN
 10
0.0
 20
0.0
  9
$LIMMAX
 10
12.0
 20
9.0
  9
$ORTHOMODE
 70
     0
  9
$REGENMODE
 70
     1
  9
$FILLMODE
 70
     1
  9
$QTEXTMODE
 70
     0
  9
$MIRRTEXT
 70
     1
  9
$LTSCALE
 40
1.0
  9
$ATTMODE
 70
     1
  9
$TEXTSIZE
 40
0.2
  9
$TRACEWID
 40
0.05
  9
$TEXTSTYLE
  7
Standard
  9
$CLAYER
  8
0
  9
$CELTYPE
  6
ByLayer
  9
$CECOLOR
 62
   256
  9
$CELTSCALE
 40
1.0
  9
$DISPSILH
 70
     0
  9
$DIMSCALE
 40
1.0
  9
$DIMASZ
 40
0.18
  9
$DIMEXO
 40
0.0625
  9
$DIMDLI
 40
0.38
  9
$DIMRND
 40
0.0
  9
$DIMDLE
 40
0.0
  9
$DIMEXE
 40
0.18
  9
$DIMTP
 40
0.0
  9
$DIMTM
 40
0.0
  9
$DIMTXT
 40
0.18
  9
$DIMCEN
 40
0.09
  9
$DIMTSZ
 40
0.0
  9
$DIMTOL
 70
     0
  9
$DIMLIM
 70
     0
  9
$DIMTIH
 70
     1
  9
$DIMTOH
 70
     1
  9
$DIMSE1
 70
     0
  9
$DIMSE2
 70
     0
  9
$DIMTAD
 70
     0
  9
$DIMZIN
 70
     0
  9
$DIMBLK
  1

  9
$DIMASO
 70
     1
  9
$DIMSHO
 70
     1
  9
$DIMPOST
  1

  9
$DIMAPOST
  1

  9
$DIMALT
 70
     0
  9
$DIMALTD
 70
     2
  9
$DIMALTF
 40
25.4
  9
$DIMLFAC
 40
1.0
  9
$DIMTOFL
 70
     0
  9
$DIMTVP
 40
0.0
  9
$DIMTIX
 70
     0
  9
$DIMSOXD
 70
     0
  9
$DIMSAH
 70
     0
  9
$DIMBLK1
  1

  9
$DIMBLK2
  1

  9
$DIMSTYLE
  2
Standard
  9
$DIMCLRD
 70
     0
  9
$DIMCLRE
 70
     0
  9
$DIMCLRT
 70
     0
  9
$DIMTFAC
 40
1.0
  9
$DIMGAP
 40
0.09
  9
$DIMJUST
 70
     0
  9
$DIMSD1
 70
     0
  9
$DIMSD2
 70
     0
  9
$DIMTOLJ
 70
     1
  9
$DIMTZIN
 70
     0
  9
$DIMALTZ
 70
     0
  9
$DIMALTTZ
 70
     0
  9
$DIMUPT
 70
     0
  9
$DIMDEC
 70
     4
  9
$DIMTDEC
 70
     4
  9
$DIMALTU
 70
     2
  9
$DIMALTTD
 70
     2
  9
$DIMTXSTY
  7
Standard
  9
$DIMAUNIT
 70
     0
  9
$DIMADEC
 70
     0
  9
$DIMALTRND
 40
0.0
  9
$DIMAZIN
 70
     0
  9
$DIMDSEP
 70
    46
  9
$DIMATFIT
 70
     3
  9
$DIMFRAC
 70
     0
  9
$DIMLDRBLK
  1

  9
$DIMLUNIT
 70
     2
  9
$DIMLWD
 70
    -2
  9
$DIMLWE
 70
    -2
  9
$DIMTMOVE
 70
     0
  9
$DIMFXL
 40
1.0
  9
$DIMFXLON
 70
     0
  9
$DIMJOGANG
 40
0.7853981633974483
  9
$DIMTFILL
 70
     0
  9
$DIMTFILLCLR
 70
     0
  9
$DIMARCSYM
 70
     0
  9
$DIMLTYPE
  6

  9
$DIMLTEX1
  6

  9
$DIMLTEX2
  6

  9
$DIMTXTDIRECTION
 70
     0
  9
$LUNITS
 70
     2
  9
$LUPREC
 70
     4
  9
$SKETCHINC
 40
0.1
  9
$FILLETRAD
 40
0.5
  9
$AUNITS
 70
     0
  9
$AUPREC
 70
     0
  9
$MENU
  1
.
  9
$ELEVATION
 40
0.0
  9
$PELEVATION
 40
0.0
  9
$THICKNESS
 40
0.0
  9
$LIMCHECK
 70
     0
  9
$CHAMFERA
 40
0.0
  9
$CHAMFERB
 40
0.0
  9
$CHAMFERC
 40
0.0
  9
$CHAMFERD
 40
0.0
  9
$SKPOLY
 70
     0
  9
$TDCREATE
 40
2457758.689042604
  9
$TDUCREATE
 40
2457758.689042604
  9
$TDUPDATE
 40
2457758.873859838
  9
$TDUUPDATE
 40
2457758.873859838
  9
$TDINDWG
 40
0.0002721296
  9
$TDUSRTIMER
 40
0.0002721181
  9
$USRTIMER
 70
     1
  9
$ANGBASE
 50
0.0
  9
$ANGDIR
 70
     0
  9
$PDMODE
 70
     0
  9
$PDSIZE
 40
0.0
  9
$PLINEWID
 40
0.0
  9
$SPLFRAME
 70
     0
  9
$SPLINETYPE
 70
     6
  9
$SPLINESEGS
 70
     8
  9
$HANDSEED
  5
D1
  9
$SURFTAB1
 70
     6
  9
$SURFTAB2
 70
     6
  9
$SURFTYPE
 70
     6
  9
$SURFU
 70
     6
  9
$SURFV
 70
     6
  9
$UCSBASE
  2

  9
$UCSNAME
  2

  9
$UCSORG
 10
0.0
 20
0.0
 30
0.0
  9
$UCSXDIR
 10
1.0
 20
0.0
 30
0.0
  9
$UCSYDIR
 10
0.0
 20
1.0
 30
0.0
  9
$UCSORTHOREF
  2

  9
$UCSORTHOVIEW
 70
     0
  9
$UCSORGTOP
 10
0.0
 20
0.0
 30
0.0
  9
$UCSORGBOTTOM
 10
0.0
 20
0.0
 30
0.0
  9
$UCSORGLEFT
 10
0.0
 20
0.0
 30
0.0
  9
$UCSORGRIGHT
 10
0.0
 20
0.0
 30
0.0
  9
$UCSORGFRONT
 10
0.0
 20
0.0
 30
0.0
  9
$UCSORGBACK
 10
0.0
 20
0.0
 30
0.0
  9
$PUCSBASE
  2

  9
$PUCSNAME
  2

  9
$PUCSORG
 10
0.0
 20
0.0
 30
0.0
  9
$PUCSXDIR
 10
1.0
 20
0.0
 30
0.0
  9
$PUCSYDIR
 10
0.0
 20
1.0
 30
0.0
  9
$PUCSORTHOREF
  2

  9
$PUCSORTHOVIEW
 70
     0
  9
$PUCSORGTOP
 10
0.0
 20
0.0
 30
0.0
  9
$PUCSORGBOTTOM
 10
0.0
 20
0.0
 30
0.0
  9
$PUCSORGLEFT
 10
0.0
 20
0.0
 30
0.0
  9
$PUCSORGRIGHT
 10
0.0
 20
0.0
 30
0.0
  9
$PUCSORGFRONT
 10
0.0
 20
0.0
 30
0.0
  9
$PUCSORGBACK
 10
0.0
 20
0.0
 30
0.0
  9
$USERI1
 70
     0
  9
$USERI2
 70
     0
  9
$USERI3
 70
     0
  9
$USERI4
 70
     0
  9
$USERI5
 70
     0
  9
$USERR1
 40
0.0
  9
$USERR2
 40
0.0
  9
$USERR3
 40
0.0
  9
$USERR4
 40
0.0
  9
$USERR5
 40
0.0
  9
$WORLDVIEW
 70
     1
  9
$SHADEDGE
 70
     3
  9
$SHADEDIF
 70
    70
  9
$TILEMODE
 70
     1
  9
$MAXACTVP
 70
    64
  9
$PINSBASE
 10
0.0
 20
0.0
 30
0.0
  9
$PLIMCHECK
 70
     0
  9
$PEXTMIN
 10
1.000000000000000E+20
 20
1.000000000000000E+20
 30
1.000000000000000E+20
  9
$PEXTMAX
 10
-1.000000000000000E+20
 20
-1.000000000000000E+20
 30
-1.000000000000000E+20
  9
$PLIMMIN
 10
0.0
 20
0.0
  9
$PLIMMAX
 10
12.0
 20
9.0
  9
$UNITMODE
 70
     0
  9
$VISRETAIN
 70
     1
  9
$PLINEGEN
 70
     0
  9
$PSLTSCALE
 70
     1
  9
$TREEDEPTH
 70
  3020
  9
$CMLSTYLE
  2
Standard
  9
$CMLJUST
 70
     0
  9
$CMLSCALE
 40
1.0
  9
$PROXYGRAPHICS
 70
     1
  9
$MEASUREMENT
 70
     0
  9
$CELWEIGHT
370
    -1
  9
$ENDCAPS
280
     0
  9
$JOINSTYLE
280
     0
  9
$LWDISPLAY
290
     0
  9
$INSUNITS
 70
     4
  9
$HYPERLINKBASE
  1

  9
$STYLESHEET
  1

  9
$XEDIT
290
     1
  9
$CEPSNTYPE
380
     0
  9
$PSTYLEMODE
290
     1
  9
$FINGERPRINTGUID
  2
{CEE698F0-D321-487B-9433-2C9E3560FFD9}
  9
$VERSIONGUID
  2
{66352271-8CBB-4049-BB0A-94188D70C78E}
  9
$EXTNAMES
290
     1
  9
$PSVPSCALE
 40
0.0
  9
$OLESTARTUP
290
     0
  9
$SORTENTS
280
   127
  9
$INDEXCTL
280
     0
  9
$HIDETEXT
280
     1
  9
$XCLIPFRAME
280
     2
  9
$HALOGAP
280
     0
  9
$OBSCOLOR
 70
   257
  9
$OBSLTYPE
280
     0
  9
$INTERSECTIONDISPLAY
280
     0
  9
$INTERSECTIONCOLOR
 70
   257
  9
$DIMASSOC
280
     2
  9
$PROJECTNAME
  1

  9
$CAMERADISPLAY
290
     0
  9
$LENSLENGTH
 40
50.0
  9
$CAMERAHEIGHT
 40
0.0
  9
$STEPSPERSEC
 40
2.0
  9
$STEPSIZE
 40
6.0
  9
$3DDWFPREC
 40
2.0
  9
$PSOLWIDTH
 40
0.25
  9
$PSOLHEIGHT
 40
4.0
  9
$LOFTANG1
 40
1.570796326794897
  9
$LOFTANG2
 40
1.570796326794897
  9
$LOFTMAG1
 40
0.0
  9
$LOFTMAG2
 40
0.0
  9
$LOFTPARAM
 70
     7
  9
$LOFTNORMALS
280
     1
  9
$LATITUDE
 40
37.795
  9
$LONGITUDE
 40
-122.394
  9
$NORTHDIRECTION
 40
0.0
  9
$TIMEZONE
 70
 -8000
  9
$LIGHTGLYPHDISPLAY
280
     1
  9
$TILEMODELIGHTSYNCH
280
     1
  9
$CMATERIAL
347
44
  9
$SOLIDHIST
280
     0
  9
$SHOWHIST
280
     1
  9
$DWFFRAME
280
     2
  9
$DGNFRAME
280
     2
  9
$REALWORLDSCALE
290
     1
  9
$INTERFERECOLOR
 62
   256
  9
$INTERFEREOBJVS
345
33
  9
$INTERFEREVPVS
346
30
  9
$CSHADOW
280
     0
  9
$SHADOWPLANELOCATION
 40
0.0
  0
ENDSEC
  0
SECTION
  2
CLASSES
  0
CLASS
  1
ACDBDICTIONARYWDFLT
  2
AcDbDictionaryWithDefault
  3
ObjectDBX Classes
 90
        0
 91
        1
280
     0
281
     0
  0
CLASS
  1
VISUALSTYLE
  2
AcDbVisualStyle
  3
ObjectDBX Classes
 90
     4095
 91
       24
280
     0
281
     0
  0
CLASS
  1
MATERIAL
  2
AcDbMaterial
  3
ObjectDBX Classes
 90
     1153
 91
        3
280
     0
281
     0
  0
CLASS
  1
SCALE
  2
AcDbScale
  3
ObjectDBX Classes
 90
     1153
 91
       33
280
     0
281
     0
  0
CLASS
  1
TABLESTYLE
  2
AcDbTableStyle
  3
ObjectDBX Classes
 90
     4095
 91
        1
280
     0
281
     0
  0
CLASS
  1
MLEADERSTYLE
  2
AcDbMLeaderStyle
  3
ACDB_MLEADERSTYLE_CLASS
 90
     4095
 91
        1
280
     0
281
     0
  0
CLASS
  1
SUN
  2
AcDbSun
  3
SCENEOE
 90
     1153
 91
        1
280
     0
281
     0
  0
CLASS
  1
DICTIONARYVAR
  2
AcDbDictionaryVar
  3
ObjectDBX Classes
 90
        0
 91
        8
280
     0
281
     0
  0
CLASS
  1
CELLSTYLEMAP
  2
AcDbCellStyleMap
  3
ObjectDBX Classes
 90
     1152
 91
        2
280
     0
281
     0
  0
CLASS
  1
ACDBSECTIONVIEWSTYLE
  2
AcDbSectionViewStyle
  3
ObjectDBX Classes
 90
     1025
 91
        1
280
     0
281
     0
  0
CLASS
  1
ACDBDETAILVIEWSTYLE
  2
AcDbDetailViewStyle
  3
ObjectDBX Classes
 90
     1025
 91
        1
280
     0
281
     0
  0
ENDSEC
  0
SECTION
  2
TABLES
  0
TABLE
  2
VPORT
  5
8
330
0
100
AcDbSymbolTable
 70
     1
  0
VPORT
  5
29
330
8
100
AcDbSymbolTableRecord
100
AcDbViewportTableRecord
  2
*Active
 70
     0
 10
0.0
 20
0.0
 11
1.0
 21
1.0
 12
17.13601760669831
 22
14.4114545625182
 13
0.0
 23
0.0
 14
0.5
 24
0.5
 15
0.5
 25
0.5
 16
0.0
 26
0.0
 36
1.0
 17
0.0
 27
0.0
 37
0.0
 40
52.86704233715322
 41
1.38125
 42
50.0
 43
0.0
 44
0.0
 50
0.0
 51
0.0
 71
     0
 72
   100
 73
     1
 74
     3
 75
     0
 76
     0
 77
     0
 78
     0
281
     0
 65
     1
110
0.0
120
0.0
130
0.0
111
1.0
121
0.0
131
0.0
112
0.0
122
1.0
132
0.0
 79
     0
146
0.0
348
2F
 60
     3
 61
     5
292
     1
282
     1
141
0.0
142
0.0
 63
   250
361
6D
1001
ACAD_NAV_VCDISPLAY
1070
     3
  0
ENDTAB
  0
TABLE
  2
LTYPE
  5
5
330
0
100
AcDbSymbolTable
 70
     1
  0
LTYPE
  5
14
330
5
100
AcDbSymbolTableRecord
100
AcDbLinetypeTableRecord
  2
ByBlock
 70
     0
  3

 72
    65
 73
     0
 40
0.0
  0
LTYPE
  5
15
330
5
100
AcDbSymbolTableRecord
100
AcDbLinetypeTableRecord
  2
ByLayer
 70
     0
  3

 72
    65
 73
     0
 40
0.0
  0
LTYPE
  5
16
330
5
100
AcDbSymbolTableRecord
100
AcDbLinetypeTableRecord
  2
Continuous
 70
     0
  3
Solid line
 72
    65
 73
     0
 40
0.0
  0
ENDTAB
  0
TABLE
  2
LAYER
  5
2
330
0
100
AcDbSymbolTable
 70
     2
  0
LAYER
  5
10
102
{ACAD_XDICTIONARY
360
C2
102
}
330
2
100
AcDbSymbolTableRecord
100
AcDbLayerTableRecord
  2
0
 70
     0
 62
     7
  6
Continuous
370
    -3
390
F
347
46
348
0
  0
LAYER
  5
6F
102
{ACAD_XDICTIONARY
360
C4
102
}
330
2
100
AcDbSymbolTableRecord
100
AcDbLayerTableRecord
  2
Layer 1
 70
     0
 62
     7
  6
Continuous
370
    -3
390
F
347
46
348
0
  0
ENDTAB
  0
TABLE
  2
STYLE
  5
3
330
0
100
AcDbSymbolTable
 70
     1
  0
STYLE
  5
11
330
3
100
AcDbSymbolTableRecord
100
AcDbTextStyleTableRecord
  2
Standard
 70
     0
 40
0.0
 41
1.0
 50
0.0
 71
     0
 42
0.2
  3
txt
  4

  0
ENDTAB
  0
TABLE
  2
VIEW
  5
6
330
0
100
AcDbSymbolTable
 70
     0
  0
ENDTAB
  0
TABLE
  2
UCS
  5
7
330
0
100
AcDbSymbolTable
 70
     0
  0
ENDTAB
  0
TABLE
  2
APPID
  5
9
330
0
100
AcDbSymbolTable
 70
     4
  0
APPID
  5
12
330
9
100
AcDbSymbolTableRecord
100
AcDbRegAppTableRecord
  2
ACAD
 70
     0
  0
APPID
  5
6E
330
9
100
AcDbSymbolTableRecord
100
AcDbRegAppTableRecord
  2
ODA
 70
     0
  0
APPID
  5
B2
330
9
100
AcDbSymbolTableRecord
100
AcDbRegAppTableRecord
  2
ACAD_MLEADERVER
 70
     0
  0
APPID
  5
CA
330
9
100
AcDbSymbolTableRecord
100
AcDbRegAppTableRecord
  2
ACAD_NAV_VCDISPLAY
 70
     0
  0
ENDTAB
  0
TABLE
  2
DIMSTYLE
  5
A
330
0
100
AcDbSymbolTable
 70
     1
100
AcDbDimStyleTable
 71
     0
  0
DIMSTYLE
105
27
330
A
100
AcDbSymbolTableRecord
100
AcDbDimStyleTableRecord
  2
Standard
 70
     0
340
11
  0
ENDTAB
  0
TABLE
  2
BLOCK_RECORD
  5
1
330
0
100
AcDbSymbolTable
 70
     1
  0
BLOCK_RECORD
  5
1F
330
1
100
AcDbSymbolTableRecord
100
AcDbBlockTableRecord
  2
*Model_Space
340
22
 70
     0
280
     1
281
     0
  0
BLOCK_RECORD
  5
1B
330
1
100
AcDbSymbolTableRecord
100
AcDbBlockTableRecord
  2
*Paper_Space
340
1E
 70
     0
280
     1
281
     0
  0
BLOCK_RECORD
  5
23
330
1
100
AcDbSymbolTableRecord
100
AcDbBlockTableRecord
  2
*Paper_Space0
340
26
 70
     0
280
     1
281
     0
  0
ENDTAB
  0
ENDSEC
  0
SECTION
  2
BLOCKS
  0
BLOCK
  5
20
330
1F
100
AcDbEntity
  8
0
100
AcDbBlockBegin
  2
*Model_Space
 70
     0
 10
0.0
 20
0.0
 30
0.0
  3
*Model_Space
  1

  0
ENDBLK
  5
21
330
1F
100
AcDbEntity
  8
0
100
AcDbBlockEnd
  0
BLOCK
  5
1C
330
1B
100
AcDbEntity
 67
     1
  8
0
100
AcDbBlockBegin
  2
*Paper_Space
 70
     0
 10
0.0
 20
0.0
 30
0.0
  3
*Paper_Space
  1

  0
ENDBLK
  5
1D
330
1B
100
AcDbEntity
 67
     1
  8
0
100
AcDbBlockEnd
  0
BLOCK
  5
24
330
23
100
AcDbEntity
 67
     1
  8
0
100
AcDbBlockBegin
  2
*Paper_Space0
 70
     0
 10
0.0
 20
0.0
 30
0.0
  3
*Paper_Space0
  1

  0
ENDBLK
  5
25
330
23
100
AcDbEntity
 67
     1
  8
0
100
AcDbBlockEnd
  0
ENDSEC
  0
SECTION
  2
ENTITIES
  0
SPLINE
  5
70
330
1F
100
AcDbEntity
  8
Layer 1
370
     5
100
AcDbSpline
210
0.0
220
0.0
230
1.0
 70
    11
 71
     3
 72
   304
 73
   300
 74
     0
 42
0.000000001
 43
0.0000000001
 40
0.0
 40
0.0
 40
0.0
 40
0.0
 40
0.0131578947368421
 40
0.0131578947368421
 40
0.0131578947368421
 40
0.0131579047368421
 40
0.0263157894736842
 40
0.0263157894736842
 40
0.0263157894736842
 40
0.0263157994736842
 40
0.0394736842105263
 40
0.0394736842105263
 40
0.0394736842105263
 40
0.0394736942105263
 40
0.0526315789473684
 40
0.0526315789473684
 40
0.0526315789473684
 40
0.0526315889473684
 40
0.0657894736842105
 40
0.0657894736842105
 40
0.0657894736842105
 40
0.0657894836842105
 40
0.0789473684210526
 40
0.0789473684210526
 40
0.0789473684210526
 40
0.0789473784210526
 40
0.0921052631578947
 40
0.0921052631578947
 40
0.0921052631578947
 40
0.0921052731578947
 40
0.1052631578947368
 40
0.1052631578947368
 40
0.1052631578947368
 40
0.1052631678947368
 40
0.1184210526315789
 40
0.1184210526315789
 40
0.1184210526315789
 40
0.1184210626315789
 40
0.131578947368421
 40
0.131578947368421
 40
0.131578947368421
 40
0.131578957368421
 40
0.1447368421052632
 40
0.1447368421052632
 40
0.1447368421052632
 40
0.1447368521052632
 40
0.1578947368421053
 40
0.1578947368421053
 40
0.1578947368421053
 40
0.1578947468421053
 40
0.1710526315789474
 40
0.1710526315789474
 40
0.1710526315789474
 40
0.1710526415789474
 40
0.1842105263157895
 40
0.1842105263157895
 40
0.1842105263157895
 40
0.1842105363157895
 40
0.1973684210526316
 40
0.1973684210526316
 40
0.1973684210526316
 40
0.1973684310526316
 40
0.2105263157894737
 40
0.2105263157894737
 40
0.2105263157894737
 40
0.2105263257894737
 40
0.2236842105263158
 40
0.2236842105263158
 40
0.2236842105263158
 40
0.2236842205263158
 40
0.2368421052631579
 40
0.2368421052631579
 40
0.2368421052631579
 40
0.2368421152631579
 40
0.25
 40
0.25
 40
0.25
 40
0.25000001
 40
0.2631578947368421
 40
0.2631578947368421
 40
0.2631578947368421
 40
0.2631579047368421
 40
0.2763157894736842
 40
0.2763157894736842
 40
0.2763157894736842
 40
0.2763157994736842
 40
0.2894736842105263
 40
0.2894736842105263
 40
0.2894736842105263
 40
0.2894736942105263
 40
0.3026315789473684
 40
0.3026315789473684
 40
0.3026315789473684
 40
0.3026315889473684
 40
0.3157894736842105
 40
0.3157894736842105
 40
0.3157894736842105
 40
0.3157894836842105
 40
0.3289473684210527
 40
0.3289473684210527
 40
0.3289473684210527
 40
0.3289473784210527
 40
0.3421052631578947
 40
0.3421052631578947
 40
0.3421052631578947
 40
0.3421052731578947
 40
0.3552631578947368
 40
0.3552631578947368
 40
0.3552631578947368
 40
0.3552631678947367
 40
0.3684210526315789
 40
0.3684210526315789
 40
0.3684210526315789
 40
0.3684210626315789
 40
0.381578947368421
 40
0.381578947368421
 40
0.381578947368421
 40
0.3815789573684211
 40
0.3947368421052632
 40
0.3947368421052632
 40
0.3947368421052632
 40
0.3947368521052632
 40
0.4078947368421053
 40
0.4078947368421053
 40
0.4078947368421053
 40
0.4078947468421054
 40
0.4210526315789473
 40
0.4210526315789473
 40
0.4210526315789473
 40
0.4210526415789473
 40
0.4342105263157895
 40
0.4342105263157895
 40
0.4342105263157895
 40
0.4342105363157895
 40
0.4473684210526316
 40
0.4473684210526316
 40
0.4473684210526316
 40
0.4473684310526317
 40
0.4605263157894737
 40
0.4605263157894737
 40
0.4605263157894737
 40
0.4605263257894737
 40
0.4736842105263159
 40
0.4736842105263159
 40
0.4736842105263159
 40
0.4736842205263158
 40
0.4868421052631579
 40
0.4868421052631579
 40
0.4868421052631579
 40
0.4868421152631579
 40
0.5
 40
0.5
 40
0.5
 40
0.5000000100000001
 40
0.5131578947368422
 40
0.5131578947368422
 40
0.5131578947368422
 40
0.5131579047368423
 40
0.5263157894736842
 40
0.5263157894736842
 40
0.5263157894736842
 40
0.5263157994736842
 40
0.5394736842105264
 40
0.5394736842105264
 40
0.5394736842105264
 40
0.5394736942105264
 40
0.5526315789473685
 40
0.5526315789473685
 40
0.5526315789473685
 40
0.5526315889473686
 40
0.5657894736842106
 40
0.5657894736842106
 40
0.5657894736842106
 40
0.5657894836842106
 40
0.5789473684210527
 40
0.5789473684210527
 40
0.5789473684210527
 40
0.5789473784210527
 40
0.5921052631578947
 40
0.5921052631578947
 40
0.5921052631578947
 40
0.5921052731578948
 40
0.6052631578947369
 40
0.6052631578947369
 40
0.6052631578947369
 40
0.605263167894737
 40
0.618421052631579
 40
0.618421052631579
 40
0.618421052631579
 40
0.6184210626315791
 40
0.6315789473684211
 40
0.6315789473684211
 40
0.6315789473684211
 40
0.6315789573684211
 40
0.6447368421052632
 40
0.6447368421052632
 40
0.6447368421052632
 40
0.6447368521052633
 40
0.6578947368421053
 40
0.6578947368421053
 40
0.6578947368421053
 40
0.6578947468421054
 40
0.6710526315789474
 40
0.6710526315789474
 40
0.6710526315789474
 40
0.6710526415789474
 40
0.6842105263157895
 40
0.6842105263157895
 40
0.6842105263157895
 40
0.6842105363157895
 40
0.6973684210526315
 40
0.6973684210526315
 40
0.6973684210526315
 40
0.6973684310526317
 40
0.7105263157894737
 40
0.7105263157894737
 40
0.7105263157894737
 40
0.7105263257894738
 40
0.7236842105263159
 40
0.7236842105263159
 40
0.7236842105263159
 40
0.7236842205263159
 40
0.7368421052631579
 40
0.7368421052631579
 40
0.7368421052631579
 40
0.7368421152631579
 40
0.75
 40
0.75
 40
0.75
 40
0.7500000100000001
 40
0.7631578947368422
 40
0.7631578947368422
 40
0.7631578947368422
 40
0.7631579047368423
 40
0.7763157894736842
 40
0.7763157894736842
 40
0.7763157894736842
 40
0.7763157994736842
 40
0.7894736842105264
 40
0.7894736842105264
 40
0.7894736842105264
 40
0.7894736942105264
 40
0.8026315789473684
 40
0.8026315789473684
 40
0.8026315789473684
 40
0.8026315889473686
 40
0.8157894736842104
 40
0.8157894736842104
 40
0.8157894736842104
 40
0.8157894836842105
 40
0.8289473684210527
 40
0.8289473684210527
 40
0.8289473684210527
 40
0.8289473784210526
 40
0.8421052631578946
 40
0.8421052631578946
 40
0.8421052631578946
 40
0.8421052731578948
 40
0.8552631578947368
 40
0.8552631578947368
 40
0.8552631578947368
 40
0.8552631678947369
 40
0.8684210526315791
 40
0.8684210526315791
 40
0.8684210526315791
 40
0.8684210626315792
 40
0.8815789473684208
 40
0.8815789473684208
 40
0.8815789473684208
 40
0.881578957368421
 40
0.8947368421052631
 40
0.8947368421052631
 40
0.8947368421052631
 40
0.8947368521052631
 40
0.9078947368421051
 40
0.9078947368421051
 40
0.9078947368421051
 40
0.9078947468421052
 40
0.9210526315789472
 40
0.9210526315789472
 40
0.9210526315789472
 40
0.9210526415789473
 40
0.9342105263157895
 40
0.9342105263157895
 40
0.9342105263157895
 40
0.9342105363157896
 40
0.9473684210526316
 40
0.9473684210526316
 40
0.9473684210526316
 40
0.9473684310526316
 40
0.9605263157894736
 40
0.9605263157894736
 40
0.9605263157894736
 40
0.9605263257894735
 40
0.9736842105263157
 40
0.9736842105263157
 40
0.9736842105263157
 40
0.9736842205263158
 40
1.0
 40
1.0
 40
1.0
 40
1.0
 10
13.5714
 20
21.4725
 30
0.0
 10
13.5714
 20
21.4725
 30
0.0
 10
12.9407
 20
21.2557
 30
0.0
 10
12.9407
 20
21.2557
 30
0.0
 10
12.9407
 20
21.2557
 30
0.0
 10
12.9407
 20
21.2557
 30
0.0
 10
12.6253
 20
21.1834
 30
0.0
 10
12.6253
 20
21.1834
 30
0.0
 10
12.6253
 20
21.1834
 30
0.0
 10
12.6253
 20
21.1834
 30
0.0
 10
12.3099
 20
21.1374
 30
0.0
 10
12.3099
 20
21.1374
 30
0.0
 10
12.3099
 20
21.1374
 30
0.0
 10
12.3099
 20
21.1374
 30
0.0
 10
11.6857
 20
21.1243
 30
0.0
 10
11.6857
 20
21.1243
 30
0.0
 10
11.6857
 20
21.1243
 30
0.0
 10
11.6857
 20
21.1243
 30
0.0
 10
11.3834
 20
21.144
 30
0.0
 10
11.3834
 20
21.144
 30
0.0
 10
11.3834
 20
21.144
 30
0.0
 10
11.3834
 20
21.144
 30
0.0
 10
11.0812
 20
21.19
 30
0.0
 10
11.0812
 20
21.19
 30
0.0
 10
11.0812
 20
21.19
 30
0.0
 10
11.0812
 20
21.19
 30
0.0
 10
10.7921
 20
21.2557
 30
0.0
 10
10.7921
 20
21.2557
 30
0.0
 10
10.7921
 20
21.2557
 30
0.0
 10
10.7921
 20
21.2557
 30
0.0
 10
10.5096
 20
21.3411
 30
0.0
 10
10.5096
 20
21.3411
 30
0.0
 10
10.5096
 20
21.3411
 30
0.0
 10
10.5096
 20
21.3411
 30
0.0
 10
10.2336
 20
21.4462
 30
0.0
 10
10.2336
 20
21.4462
 30
0.0
 10
10.2336
 20
21.4462
 30
0.0
 10
10.2336
 20
21.4462
 30
0.0
 10
9.977399999999999
 20
21.5711
 30
0.0
 10
9.977399999999999
 20
21.5711
 30
0.0
 10
9.977399999999999
 20
21.5711
 30
0.0
 10
9.977399999999999
 20
21.5711
 30
0.0
 10
9.7277
 20
21.7091
 30
0.0
 10
9.7277
 20
21.7091
 30
0.0
 10
9.7277
 20
21.7091
 30
0.0
 10
9.7277
 20
21.7091
 30
0.0
 10
9.491099999999999
 20
21.8602
 30
0.0
 10
9.491099999999999
 20
21.8602
 30
0.0
 10
9.491099999999999
 20
21.8602
 30
0.0
 10
9.491099999999999
 20
21.8602
 30
0.0
 10
9.2743
 20
22.031
 30
0.0
 10
9.2743
 20
22.031
 30
0.0
 10
9.2743
 20
22.031
 30
0.0
 10
9.2743
 20
22.031
 30
0.0
 10
9.077199999999999
 20
22.215
 30
0.0
 10
9.077199999999999
 20
22.215
 30
0.0
 10
9.077199999999999
 20
22.215
 30
0.0
 10
9.077199999999999
 20
22.215
 30
0.0
 10
8.728899999999999
 20
22.6223
 30
0.0
 10
8.728899999999999
 20
22.6223
 30
0.0
 10
8.728899999999999
 20
22.6223
 30
0.0
 10
8.728899999999999
 20
22.6223
 30
0.0
 10
8.4661
 20
23.0757
 30
0.0
 10
8.4661
 20
23.0757
 30
0.0
 10
8.4661
 20
23.0757
 30
0.0
 10
8.4661
 20
23.0757
 30
0.0
 10
8.3741
 20
23.3188
 30
0.0
 10
8.3741
 20
23.3188
 30
0.0
 10
8.3741
 20
23.3188
 30
0.0
 10
8.3741
 20
23.3188
 30
0.0
 10
8.301899999999999
 20
23.5685
 30
0.0
 10
8.301899999999999
 20
23.5685
 30
0.0
 10
8.301899999999999
 20
23.5685
 30
0.0
 10
8.301899999999999
 20
23.5685
 30
0.0
 10
8.262399999999999
 20
23.8248
 30
0.0
 10
8.262399999999999
 20
23.8248
 30
0.0
 10
8.262399999999999
 20
23.8248
 30
0.0
 10
8.262399999999999
 20
23.8248
 30
0.0
 10
8.249299999999999
 20
24.0942
 30
0.0
 10
8.249299999999999
 20
24.0942
 30
0.0
 10
8.249299999999999
 20
24.0942
 30
0.0
 10
8.249299999999999
 20
24.0942
 30
0.0
 10
8.262399999999999
 20
24.3635
 30
0.0
 10
8.262399999999999
 20
24.3635
 30
0.0
 10
8.262399999999999
 20
24.3635
 30
0.0
 10
8.262399999999999
 20
24.3635
 30
0.0
 10
8.3084
 20
24.6395
 30
0.0
 10
8.3084
 20
24.6395
 30
0.0
 10
8.3084
 20
24.6395
 30
0.0
 10
8.3084
 20
24.6395
 30
0.0
 10
8.387299999999999
 20
24.922
 30
0.0
 10
8.387299999999999
 20
24.922
 30
0.0
 10
8.387299999999999
 20
24.922
 30
0.0
 10
8.387299999999999
 20
24.922
 30
0.0
 10
8.499
 20
25.2046
 30
0.0
 10
8.499
 20
25.2046
 30
0.0
 10
8.499
 20
25.2046
 30
0.0
 10
8.499
 20
25.2046
 30
0.0
 10
8.643499999999999
 20
25.4937
 30
0.0
 10
8.643499999999999
 20
25.4937
 30
0.0
 10
8.643499999999999
 20
25.4937
 30
0.0
 10
8.643499999999999
 20
25.4937
 30
0.0
 10
8.8275
 20
25.7828
 30
0.0
 10
8.8275
 20
25.7828
 30
0.0
 10
8.8275
 20
25.7828
 30
0.0
 10
8.8275
 20
25.7828
 30
0.0
 10
9.044299999999999
 20
26.0785
 30
0.0
 10
9.044299999999999
 20
26.0785
 30
0.0
 10
9.044299999999999
 20
26.0785
 30
0.0
 10
9.044299999999999
 20
26.0785
 30
0.0
 10
9.307199999999999
 20
26.3676
 30
0.0
 10
9.307199999999999
 20
26.3676
 30
0.0
 10
9.307199999999999
 20
26.3676
 30
0.0
 10
9.307199999999999
 20
26.3676
 30
0.0
 10
9.162599999999999
 20
26.6764
 30
0.0
 10
9.162599999999999
 20
26.6764
 30
0.0
 10
9.162599999999999
 20
26.6764
 30
0.0
 10
9.162599999999999
 20
26.6764
 30
0.0
 10
9.0509
 20
26.9786
 30
0.0
 10
9.0509
 20
26.9786
 30
0.0
 10
9.0509
 20
26.9786
 30
0.0
 10
9.0509
 20
26.9786
 30
0.0
 10
8.9852
 20
27.2743
 30
0.0
 10
8.9852
 20
27.2743
 30
0.0
 10
8.9852
 20
27.2743
 30
0.0
 10
8.9852
 20
27.2743
 30
0.0
 10
8.958899999999999
 20
27.5568
 30
0.0
 10
8.958899999999999
 20
27.5568
 30
0.0
 10
8.958899999999999
 20
27.5568
 30
0.0
 10
8.958899999999999
 20
27.5568
 30
0.0
 10
8.9655
 20
27.8328
 30
0.0
 10
8.9655
 20
27.8328
 30
0.0
 10
8.9655
 20
27.8328
 30
0.0
 10
8.9655
 20
27.8328
 30
0.0
 10
9.011499999999999
 20
28.0956
 30
0.0
 10
9.011499999999999
 20
28.0956
 30
0.0
 10
9.011499999999999
 20
28.0956
 30
0.0
 10
9.011499999999999
 20
28.0956
 30
0.0
 10
9.0838
 20
28.3519
 30
0.0
 10
9.0838
 20
28.3519
 30
0.0
 10
9.0838
 20
28.3519
 30
0.0
 10
9.0838
 20
28.3519
 30
0.0
 10
9.182299999999999
 20
28.5884
 30
0.0
 10
9.182299999999999
 20
28.5884
 30
0.0
 10
9.182299999999999
 20
28.5884
 30
0.0
 10
9.182299999999999
 20
28.5884
 30
0.0
 10
9.3137
 20
28.8184
 30
0.0
 10
9.3137
 20
28.8184
 30
0.0
 10
9.3137
 20
28.8184
 30
0.0
 10
9.3137
 20
28.8184
 30
0.0
 10
9.4649
 20
29.0286
 30
0.0
 10
9.4649
 20
29.0286
 30
0.0
 10
9.4649
 20
29.0286
 30
0.0
 10
9.4649
 20
29.0286
 30
0.0
 10
9.6423
 20
29.2323
 30
0.0
 10
9.6423
 20
29.2323
 30
0.0
 10
9.6423
 20
29.2323
 30
0.0
 10
9.6423
 20
29.2323
 30
0.0
 10
9.846
 20
29.4163
 30
0.0
 10
9.846
 20
29.4163
 30
0.0
 10
9.846
 20
29.4163
 30
0.0
 10
9.846
 20
29.4163
 30
0.0
 10
10.0628
 20
29.5871
 30
0.0
 10
10.0628
 20
29.5871
 30
0.0
 10
10.0628
 20
29.5871
 30
0.0
 10
10.0628
 20
29.5871
 30
0.0
 10
10.2993
 20
29.7448
 30
0.0
 10
10.2993
 20
29.7448
 30
0.0
 10
10.2993
 20
29.7448
 30
0.0
 10
10.2993
 20
29.7448
 30
0.0
 10
10.8118
 20
30.0011
 30
0.0
 10
10.8118
 20
30.0011
 30
0.0
 10
10.8118
 20
30.0011
 30
0.0
 10
10.8118
 20
30.0011
 30
0.0
 10
11.3637
 20
30.1916
 30
0.0
 10
11.3637
 20
30.1916
 30
0.0
 10
11.3637
 20
30.1916
 30
0.0
 10
11.3637
 20
30.1916
 30
0.0
 10
11.942
 20
30.3033
 30
0.0
 10
11.942
 20
30.3033
 30
0.0
 10
11.942
 20
30.3033
 30
0.0
 10
11.942
 20
30.3033
 30
0.0
 10
12.5333
 20
30.3362
 30
0.0
 10
12.5333
 20
30.3362
 30
0.0
 10
12.5333
 20
30.3362
 30
0.0
 10
12.5333
 20
30.3362
 30
0.0
 10
13.1115
 20
30.2836
 30
0.0
 10
13.1115
 20
30.2836
 30
0.0
 10
13.1115
 20
30.2836
 30
0.0
 10
13.1115
 20
30.2836
 30
0.0
 10
13.394
 20
30.2245
 30
0.0
 10
13.394
 20
30.2245
 30
0.0
 10
13.394
 20
30.2245
 30
0.0
 10
13.394
 20
30.2245
 30
0.0
 10
13.67
 20
30.1391
 30
0.0
 10
13.67
 20
30.1391
 30
0.0
 10
13.67
 20
30.1391
 30
0.0
 10
13.67
 20
30.1391
 30
0.0
 10
13.9328
 20
30.0274
 30
0.0
 10
13.9328
 20
30.0274
 30
0.0
 10
13.9328
 20
30.0274
 30
0.0
 10
13.9328
 20
30.0274
 30
0.0
 10
14.1891
 20
29.896
 30
0.0
 10
14.1891
 20
29.896
 30
0.0
 10
14.1891
 20
29.896
 30
0.0
 10
14.1891
 20
29.896
 30
0.0
 10
14.4256
 20
29.7383
 30
0.0
 10
14.4256
 20
29.7383
 30
0.0
 10
14.4256
 20
29.7383
 30
0.0
 10
14.4256
 20
29.7383
 30
0.0
 10
14.649
 20
29.5543
 30
0.0
 10
14.649
 20
29.5543
 30
0.0
 10
14.649
 20
29.5543
 30
0.0
 10
14.649
 20
29.5543
 30
0.0
 10
14.8461
 20
29.3375
 30
0.0
 10
14.8461
 20
29.3375
 30
0.0
 10
14.8461
 20
29.3375
 30
0.0
 10
14.8461
 20
29.3375
 30
0.0
 10
15.0301
 20
29.1009
 30
0.0
 10
15.0301
 20
29.1009
 30
0.0
 10
15.0301
 20
29.1009
 30
0.0
 10
15.0301
 20
29.1009
 30
0.0
 10
14.7147
 20
28.9958
 30
0.0
 10
14.7147
 20
28.9958
 30
0.0
 10
14.7147
 20
28.9958
 30
0.0
 10
14.7147
 20
28.9958
 30
0.0
 10
14.4256
 20
28.871
 30
0.0
 10
14.4256
 20
28.871
 30
0.0
 10
14.4256
 20
28.871
 30
0.0
 10
14.4256
 20
28.871
 30
0.0
 10
14.1496
 20
28.733
 30
0.0
 10
14.1496
 20
28.733
 30
0.0
 10
14.1496
 20
28.733
 30
0.0
 10
14.1496
 20
28.733
 30
0.0
 10
13.9
 20
28.5818
 30
0.0
 10
13.9
 20
28.5818
 30
0.0
 10
13.9
 20
28.5818
 30
0.0
 10
13.9
 20
28.5818
 30
0.0
 10
13.67
 20
28.4176
 30
0.0
 10
13.67
 20
28.4176
 30
0.0
 10
13.67
 20
28.4176
 30
0.0
 10
13.67
 20
28.4176
 30
0.0
 10
13.4597
 20
28.2336
 30
0.0
 10
13.4597
 20
28.2336
 30
0.0
 10
13.4597
 20
28.2336
 30
0.0
 10
13.4597
 20
28.2336
 30
0.0
 10
13.2692
 20
28.043
 30
0.0
 10
13.2692
 20
28.043
 30
0.0
 10
13.2692
 20
28.043
 30
0.0
 10
13.2692
 20
28.043
 30
0.0
 10
13.0984
 20
27.846
 30
0.0
 10
13.0984
 20
27.846
 30
0.0
 10
13.0984
 20
27.846
 30
0.0
 10
13.0984
 20
27.846
 30
0.0
 10
12.8158
 20
27.4057
 30
0.0
 10
12.8158
 20
27.4057
 30
0.0
 10
12.8158
 20
27.4057
 30
0.0
 10
12.8158
 20
27.4057
 30
0.0
 10
12.599
 20
26.9326
 30
0.0
 10
12.599
 20
26.9326
 30
0.0
 10
12.599
 20
26.9326
 30
0.0
 10
12.599
 20
26.9326
 30
0.0
 10
12.4544
 20
26.4267
 30
0.0
 10
12.4544
 20
26.4267
 30
0.0
 10
12.4544
 20
26.4267
 30
0.0
 10
12.4544
 20
26.4267
 30
0.0
 10
12.3691
 20
25.9011
 30
0.0
 10
12.3691
 20
25.9011
 30
0.0
 10
12.3691
 20
25.9011
 30
0.0
 10
12.3691
 20
25.9011
 30
0.0
 10
12.3493
 20
25.3491
 30
0.0
 10
12.3493
 20
25.3491
 30
0.0
 10
12.3493
 20
25.3491
 30
0.0
 10
12.3493
 20
25.3491
 30
0.0
 10
12.3822
 20
24.7906
 30
0.0
 10
12.3822
 20
24.7906
 30
0.0
 10
12.3822
 20
24.7906
 30
0.0
 10
12.3822
 20
24.7906
 30
0.0
 10
12.4676
 20
24.219
 30
0.0
 10
12.4676
 20
24.219
 30
0.0
 10
12.4676
 20
24.219
 30
0.0
 10
12.4676
 20
24.219
 30
0.0
 10
12.6056
 20
23.6474
 30
0.0
 10
12.6056
 20
23.6474
 30
0.0
 10
12.6056
 20
23.6474
 30
0.0
 10
12.6056
 20
23.6474
 30
0.0
 10
12.7895
 20
23.0823
 30
0.0
 10
12.7895
 20
23.0823
 30
0.0
 10
12.7895
 20
23.0823
 30
0.0
 10
12.7895
 20
23.0823
 30
0.0
 10
13.0129
 20
22.5304
 30
0.0
 10
13.0129
 20
22.5304
 30
0.0
 10
13.0129
 20
22.5304
 30
0.0
 10
13.0129
 20
22.5304
 30
0.0
 10
13.2758
 20
21.9916
 30
0.0
 10
13.2758
 20
21.9916
 30
0.0
 10
13.2758
 20
21.9916
 30
0.0
 10
13.2758
 20
21.9916
 30
0.0
 10
13.5714
 20
21.4725
 30
0.0
 10
13.5714
 20
21.4725
 30
0.0
  0
SPLINE
  5
71
330
1F
100
AcDbEntity
  8
Layer 1
370
     5
100
AcDbSpline
210
0.0
220
0.0
230
1.0
 70
    11
 71
     3
 72
   608
 73
   604
 74
     0
 42
0.000000001
 43
0.0000000001
 40
0.0
 40
0.0
 40
0.0
 40
0.0
 40
0.0065789473684211
 40
0.0065789473684211
 40
0.0065789473684211
 40
0.0065789573684211
 40
0.0131578947368421
 40
0.0131578947368421
 40
0.0131578947368421
 40
0.0131579047368421
 40
0.0197368421052632
 40
0.0197368421052632
 40
0.0197368421052632
 40
0.0197368521052632
 40
0.0263157894736842
 40
0.0263157894736842
 40
0.0263157894736842
 40
0.0263157994736842
 40
0.0328947368421053
 40
0.0328947368421053
 40
0.0328947368421053
 40
0.0328947468421053
 40
0.0394736842105263
 40
0.0394736842105263
 40
0.0394736842105263
 40
0.0394736942105263
 40
0.0460526315789474
 40
0.0460526315789474
 40
0.0460526315789474
 40
0.0460526415789474
 40
0.0526315789473684
 40
0.0526315789473684
 40
0.0526315789473684
 40
0.0526315889473684
 40
0.0592105263157895
 40
0.0592105263157895
 40
0.0592105263157895
 40
0.0592105363157895
 40
0.0657894736842105
 40
0.0657894736842105
 40
0.0657894736842105
 40
0.0657894836842105
 40
0.0723684210526316
 40
0.0723684210526316
 40
0.0723684210526316
 40
0.0723684310526316
 40
0.0789473684210526
 40
0.0789473684210526
 40
0.0789473684210526
 40
0.0789473784210526
 40
0.0855263157894737
 40
0.0855263157894737
 40
0.0855263157894737
 40
0.0855263257894737
 40
0.0921052631578947
 40
0.0921052631578947
 40
0.0921052631578947
 40
0.0921052731578947
 40
0.0986842105263158
 40
0.0986842105263158
 40
0.0986842105263158
 40
0.0986842205263158
 40
0.1052631578947368
 40
0.1052631578947368
 40
0.1052631578947368
 40
0.1052631678947368
 40
0.1118421052631579
 40
0.1118421052631579
 40
0.1118421052631579
 40
0.1118421152631579
 40
0.1184210526315789
 40
0.1184210526315789
 40
0.1184210526315789
 40
0.1184210626315789
 40
0.125
 40
0.125
 40
0.125
 40
0.12500001
 40
0.131578947368421
 40
0.131578947368421
 40
0.131578947368421
 40
0.131578957368421
 40
0.1381578947368421
 40
0.1381578947368421
 40
0.1381578947368421
 40
0.1381579047368421
 40
0.1447368421052632
 40
0.1447368421052632
 40
0.1447368421052632
 40
0.1447368521052632
 40
0.1513157894736842
 40
0.1513157894736842
 40
0.1513157894736842
 40
0.1513157994736842
 40
0.1578947368421053
 40
0.1578947368421053
 40
0.1578947368421053
 40
0.1578947468421053
 40
0.1644736842105263
 40
0.1644736842105263
 40
0.1644736842105263
 40
0.1644736942105263
 40
0.1710526315789474
 40
0.1710526315789474
 40
0.1710526315789474
 40
0.1710526415789474
 40
0.1776315789473684
 40
0.1776315789473684
 40
0.1776315789473684
 40
0.1776315889473684
 40
0.1842105263157895
 40
0.1842105263157895
 40
0.1842105263157895
 40
0.1842105363157895
 40
0.1907894736842105
 40
0.1907894736842105
 40
0.1907894736842105
 40
0.1907894836842105
 40
0.1973684210526316
 40
0.1973684210526316
 40
0.1973684210526316
 40
0.1973684310526316
 40
0.2039473684210526
 40
0.2039473684210526
 40
0.2039473684210526
 40
0.2039473784210526
 40
0.2105263157894737
 40
0.2105263157894737
 40
0.2105263157894737
 40
0.2105263257894737
 40
0.2171052631578947
 40
0.2171052631578947
 40
0.2171052631578947
 40
0.2171052731578947
 40
0.2236842105263158
 40
0.2236842105263158
 40
0.2236842105263158
 40
0.2236842205263158
 40
0.2302631578947368
 40
0.2302631578947368
 40
0.2302631578947368
 40
0.2302631678947368
 40
0.2368421052631579
 40
0.2368421052631579
 40
0.2368421052631579
 40
0.2368421152631579
 40
0.2434210526315789
 40
0.2434210526315789
 40
0.2434210526315789
 40
0.243421062631579
 40
0.25
 40
0.25
 40
0.25
 40
0.25000001
 40
0.2565789473684211
 40
0.2565789473684211
 40
0.2565789473684211
 40
0.2565789573684211
 40
0.2631578947368421
 40
0.2631578947368421
 40
0.2631578947368421
 40
0.2631579047368421
 40
0.2697368421052632
 40
0.2697368421052632
 40
0.2697368421052632
 40
0.2697368521052632
 40
0.2763157894736842
 40
0.2763157894736842
 40
0.2763157894736842
 40
0.2763157994736842
 40
0.2828947368421053
 40
0.2828947368421053
 40
0.2828947368421053
 40
0.2828947468421053
 40
0.2894736842105263
 40
0.2894736842105263
 40
0.2894736842105263
 40
0.2894736942105263
 40
0.2960526315789473
 40
0.2960526315789473
 40
0.2960526315789473
 40
0.2960526415789473
 40
0.3026315789473684
 40
0.3026315789473684
 40
0.3026315789473684
 40
0.3026315889473684
 40
0.3092105263157895
 40
0.3092105263157895
 40
0.3092105263157895
 40
0.3092105363157895
 40
0.3157894736842105
 40
0.3157894736842105
 40
0.3157894736842105
 40
0.3157894836842105
 40
0.3223684210526316
 40
0.3223684210526316
 40
0.3223684210526316
 40
0.3223684310526316
 40
0.3289473684210527
 40
0.3289473684210527
 40
0.3289473684210527
 40
0.3289473784210527
 40
0.3355263157894737
 40
0.3355263157894737
 40
0.3355263157894737
 40
0.3355263257894737
 40
0.3421052631578947
 40
0.3421052631578947
 40
0.3421052631578947
 40
0.3421052731578947
 40
0.3486842105263158
 40
0.3486842105263158
 40
0.3486842105263158
 40
0.3486842205263158
 40
0.3552631578947368
 40
0.3552631578947368
 40
0.3552631578947368
 40
0.3552631678947367
 40
0.3618421052631579
 40
0.3618421052631579
 40
0.3618421052631579
 40
0.3618421152631579
 40
0.3684210526315789
 40
0.3684210526315789
 40
0.3684210526315789
 40
0.3684210626315789
 40
0.375
 40
0.375
 40
0.375
 40
0.37500001
 40
0.381578947368421
 40
0.381578947368421
 40
0.381578947368421
 40
0.3815789573684211
 40
0.3881578947368421
 40
0.3881578947368421
 40
0.3881578947368421
 40
0.388157904736842
 40
0.3947368421052632
 40
0.3947368421052632
 40
0.3947368421052632
 40
0.3947368521052632
 40
0.4013157894736842
 40
0.4013157894736842
 40
0.4013157894736842
 40
0.4013157994736842
 40
0.4078947368421053
 40
0.4078947368421053
 40
0.4078947368421053
 40
0.4078947468421054
 40
0.4144736842105264
 40
0.4144736842105264
 40
0.4144736842105264
 40
0.4144736942105263
 40
0.4210526315789473
 40
0.4210526315789473
 40
0.4210526315789473
 40
0.4210526415789473
 40
0.4276315789473684
 40
0.4276315789473684
 40
0.4276315789473684
 40
0.4276315889473685
 40
0.4342105263157895
 40
0.4342105263157895
 40
0.4342105263157895
 40
0.4342105363157895
 40
0.4407894736842106
 40
0.4407894736842106
 40
0.4407894736842106
 40
0.4407894836842105
 40
0.4473684210526316
 40
0.4473684210526316
 40
0.4473684210526316
 40
0.4473684310526317
 40
0.4539473684210528
 40
0.4539473684210528
 40
0.4539473684210528
 40
0.4539473784210527
 40
0.4605263157894737
 40
0.4605263157894737
 40
0.4605263157894737
 40
0.4605263257894737
 40
0.4671052631578947
 40
0.4671052631578947
 40
0.4671052631578947
 40
0.4671052731578948
 40
0.4736842105263159
 40
0.4736842105263159
 40
0.4736842105263159
 40
0.4736842205263158
 40
0.4802631578947369
 40
0.4802631578947369
 40
0.4802631578947369
 40
0.4802631678947368
 40
0.4868421052631579
 40
0.4868421052631579
 40
0.4868421052631579
 40
0.4868421152631579
 40
0.493421052631579
 40
0.493421052631579
 40
0.493421052631579
 40
0.4934210626315789
 40
0.5
 40
0.5
 40
0.5
 40
0.5000000100000001
 40
0.5065789473684211
 40
0.5065789473684211
 40
0.5065789473684211
 40
0.5065789573684211
 40
0.5131578947368422
 40
0.5131578947368422
 40
0.5131578947368422
 40
0.5131579047368423
 40
0.5197368421052632
 40
0.5197368421052632
 40
0.5197368421052632
 40
0.5197368521052633
 40
0.5263157894736842
 40
0.5263157894736842
 40
0.5263157894736842
 40
0.5263157994736842
 40
0.5328947368421053
 40
0.5328947368421053
 40
0.5328947368421053
 40
0.5328947468421054
 40
0.5394736842105264
 40
0.5394736842105264
 40
0.5394736842105264
 40
0.5394736942105264
 40
0.5460526315789474
 40
0.5460526315789474
 40
0.5460526315789474
 40
0.5460526415789474
 40
0.5526315789473685
 40
0.5526315789473685
 40
0.5526315789473685
 40
0.5526315889473686
 40
0.5592105263157895
 40
0.5592105263157895
 40
0.5592105263157895
 40
0.5592105363157895
 40
0.5657894736842106
 40
0.5657894736842106
 40
0.5657894736842106
 40
0.5657894836842106
 40
0.5723684210526315
 40
0.5723684210526315
 40
0.5723684210526315
 40
0.5723684310526317
 40
0.5789473684210527
 40
0.5789473684210527
 40
0.5789473684210527
 40
0.5789473784210527
 40
0.5855263157894737
 40
0.5855263157894737
 40
0.5855263157894737
 40
0.5855263257894738
 40
0.5921052631578947
 40
0.5921052631578947
 40
0.5921052631578947
 40
0.5921052731578948
 40
0.5986842105263159
 40
0.5986842105263159
 40
0.5986842105263159
 40
0.5986842205263159
 40
0.6052631578947369
 40
0.6052631578947369
 40
0.6052631578947369
 40
0.605263167894737
 40
0.6118421052631579
 40
0.6118421052631579
 40
0.6118421052631579
 40
0.6118421152631579
 40
0.618421052631579
 40
0.618421052631579
 40
0.618421052631579
 40
0.6184210626315791
 40
0.625
 40
0.625
 40
0.625
 40
0.6250000100000001
 40
0.6315789473684211
 40
0.6315789473684211
 40
0.6315789473684211
 40
0.6315789573684211
 40
0.6381578947368422
 40
0.6381578947368422
 40
0.6381578947368422
 40
0.6381579047368423
 40
0.6447368421052632
 40
0.6447368421052632
 40
0.6447368421052632
 40
0.6447368521052633
 40
0.6513157894736842
 40
0.6513157894736842
 40
0.6513157894736842
 40
0.6513157994736842
 40
0.6578947368421053
 40
0.6578947368421053
 40
0.6578947368421053
 40
0.6578947468421054
 40
0.6644736842105264
 40
0.6644736842105264
 40
0.6644736842105264
 40
0.6644736942105264
 40
0.6710526315789474
 40
0.6710526315789474
 40
0.6710526315789474
 40
0.6710526415789474
 40
0.6776315789473685
 40
0.6776315789473685
 40
0.6776315789473685
 40
0.6776315889473686
 40
0.6842105263157895
 40
0.6842105263157895
 40
0.6842105263157895
 40
0.6842105363157895
 40
0.6907894736842106
 40
0.6907894736842106
 40
0.6907894736842106
 40
0.6907894836842106
 40
0.6973684210526315
 40
0.6973684210526315
 40
0.6973684210526315
 40
0.6973684310526317
 40
0.7039473684210527
 40
0.7039473684210527
 40
0.7039473684210527
 40
0.7039473784210527
 40
0.7105263157894737
 40
0.7105263157894737
 40
0.7105263157894737
 40
0.7105263257894738
 40
0.7171052631578947
 40
0.7171052631578947
 40
0.7171052631578947
 40
0.7171052731578948
 40
0.7236842105263159
 40
0.7236842105263159
 40
0.7236842105263159
 40
0.7236842205263159
 40
0.7302631578947369
 40
0.7302631578947369
 40
0.7302631578947369
 40
0.730263167894737
 40
0.7368421052631579
 40
0.7368421052631579
 40
0.7368421052631579
 40
0.7368421152631579
 40
0.7434210526315792
 40
0.7434210526315792
 40
0.7434210526315792
 40
0.7434210626315792
 40
0.75
 40
0.75
 40
0.75
 40
0.7500000100000001
 40
0.7565789473684209
 40
0.7565789473684209
 40
0.7565789473684209
 40
0.756578957368421
 40
0.7631578947368422
 40
0.7631578947368422
 40
0.7631578947368422
 40
0.7631579047368423
 40
0.7697368421052632
 40
0.7697368421052632
 40
0.7697368421052632
 40
0.7697368521052633
 40
0.7763157894736842
 40
0.7763157894736842
 40
0.7763157894736842
 40
0.7763157994736842
 40
0.7828947368421053
 40
0.7828947368421053
 40
0.7828947368421053
 40
0.7828947468421054
 40
0.7894736842105264
 40
0.7894736842105264
 40
0.7894736842105264
 40
0.7894736942105264
 40
0.7960526315789474
 40
0.7960526315789474
 40
0.7960526315789474
 40
0.7960526415789474
 40
0.8026315789473684
 40
0.8026315789473684
 40
0.8026315789473684
 40
0.8026315889473686
 40
0.8092105263157895
 40
0.8092105263157895
 40
0.8092105263157895
 40
0.8092105363157894
 40
0.8157894736842104
 40
0.8157894736842104
 40
0.8157894736842104
 40
0.8157894836842105
 40
0.8223684210526315
 40
0.8223684210526315
 40
0.8223684210526315
 40
0.8223684310526316
 40
0.8289473684210527
 40
0.8289473684210527
 40
0.8289473684210527
 40
0.8289473784210526
 40
0.8355263157894736
 40
0.8355263157894736
 40
0.8355263157894736
 40
0.8355263257894737
 40
0.8421052631578946
 40
0.8421052631578946
 40
0.8421052631578946
 40
0.8421052731578948
 40
0.8486842105263157
 40
0.8486842105263157
 40
0.8486842105263157
 40
0.8486842205263158
 40
0.8552631578947368
 40
0.8552631578947368
 40
0.8552631578947368
 40
0.8552631678947369
 40
0.8618421052631578
 40
0.8618421052631578
 40
0.8618421052631578
 40
0.8618421152631579
 40
0.8684210526315791
 40
0.8684210526315791
 40
0.8684210526315791
 40
0.8684210626315792
 40
0.875
 40
0.875
 40
0.875
 40
0.8750000100000001
 40
0.8815789473684208
 40
0.8815789473684208
 40
0.8815789473684208
 40
0.881578957368421
 40
0.8881578947368421
 40
0.8881578947368421
 40
0.8881578947368421
 40
0.8881579047368422
 40
0.8947368421052631
 40
0.8947368421052631
 40
0.8947368421052631
 40
0.8947368521052631
 40
0.9013157894736842
 40
0.9013157894736842
 40
0.9013157894736842
 40
0.9013157994736841
 40
0.9078947368421051
 40
0.9078947368421051
 40
0.9078947368421051
 40
0.9078947468421052
 40
0.9144736842105263
 40
0.9144736842105263
 40
0.9144736842105263
 40
0.9144736942105264
 40
0.9210526315789472
 40
0.9210526315789472
 40
0.9210526315789472
 40
0.9210526415789473
 40
0.9276315789473683
 40
0.9276315789473683
 40
0.9276315789473683
 40
0.9276315889473684
 40
0.9342105263157895
 40
0.9342105263157895
 40
0.9342105263157895
 40
0.9342105363157896
 40
0.9407894736842104
 40
0.9407894736842104
 40
0.9407894736842104
 40
0.9407894836842103
 40
0.9473684210526316
 40
0.9473684210526316
 40
0.9473684210526316
 40
0.9473684310526316
 40
0.9539473684210527
 40
0.9539473684210527
 40
0.9539473684210527
 40
0.9539473784210528
 40
0.9605263157894736
 40
0.9605263157894736
 40
0.9605263157894736
 40
0.9605263257894735
 40
0.9671052631578948
 40
0.9671052631578948
 40
0.9671052631578948
 40
0.9671052731578948
 40
0.9736842105263157
 40
0.9736842105263157
 40
0.9736842105263157
 40
0.9736842205263158
 40
0.9802631578947368
 40
0.9802631578947368
 40
0.9802631578947368
 40
0.9802631678947369
 40
0.9868421052631578
 40
0.9868421052631578
 40
0.9868421052631578
 40
0.9868421152631579
 40
1.0
 40
1.0
 40
1.0
 40
1.0
 10
13.8014
 20
21.236
 30
0.0
 10
13.8014
 20
21.236
 30
0.0
 10
14.2154
 20
20.6183
 30
0.0
 10
14.2154
 20
20.6183
 30
0.0
 10
14.2154
 20
20.6183
 30
0.0
 10
14.2154
 20
20.6183
 30
0.0
 10
14.649
 20
20.0533
 30
0.0
 10
14.649
 20
20.0533
 30
0.0
 10
14.649
 20
20.0533
 30
0.0
 10
14.649
 20
20.0533
 30
0.0
 10
15.1024
 20
19.5408
 30
0.0
 10
15.1024
 20
19.5408
 30
0.0
 10
15.1024
 20
19.5408
 30
0.0
 10
15.1024
 20
19.5408
 30
0.0
 10
15.5689
 20
19.0809
 30
0.0
 10
15.5689
 20
19.0809
 30
0.0
 10
15.5689
 20
19.0809
 30
0.0
 10
15.5689
 20
19.0809
 30
0.0
 10
16.0486
 20
18.6735
 30
0.0
 10
16.0486
 20
18.6735
 30
0.0
 10
16.0486
 20
18.6735
 30
0.0
 10
16.0486
 20
18.6735
 30
0.0
 10
16.5413
 20
18.3186
 30
0.0
 10
16.5413
 20
18.3186
 30
0.0
 10
16.5413
 20
18.3186
 30
0.0
 10
16.5413
 20
18.3186
 30
0.0
 10
17.0341
 20
18.0164
 30
0.0
 10
17.0341
 20
18.0164
 30
0.0
 10
17.0341
 20
18.0164
 30
0.0
 10
17.0341
 20
18.0164
 30
0.0
 10
17.54
 20
17.7667
 30
0.0
 10
17.54
 20
17.7667
 30
0.0
 10
17.54
 20
17.7667
 30
0.0
 10
17.54
 20
17.7667
 30
0.0
 10
18.0394
 20
17.5631
 30
0.0
 10
18.0394
 20
17.5631
 30
0.0
 10
18.0394
 20
17.5631
 30
0.0
 10
18.0394
 20
17.5631
 30
0.0
 10
18.5388
 20
17.4119
 30
0.0
 10
18.5388
 20
17.4119
 30
0.0
 10
18.5388
 20
17.4119
 30
0.0
 10
18.5388
 20
17.4119
 30
0.0
 10
19.0316
 20
17.3068
 30
0.0
 10
19.0316
 20
17.3068
 30
0.0
 10
19.0316
 20
17.3068
 30
0.0
 10
19.0316
 20
17.3068
 30
0.0
 10
19.5178
 20
17.2477
 30
0.0
 10
19.5178
 20
17.2477
 30
0.0
 10
19.5178
 20
17.2477
 30
0.0
 10
19.5178
 20
17.2477
 30
0.0
 10
19.9974
 20
17.2345
 30
0.0
 10
19.9974
 20
17.2345
 30
0.0
 10
19.9974
 20
17.2345
 30
0.0
 10
19.9974
 20
17.2345
 30
0.0
 10
20.4574
 20
17.2739
 30
0.0
 10
20.4574
 20
17.2739
 30
0.0
 10
20.4574
 20
17.2739
 30
0.0
 10
20.4574
 20
17.2739
 30
0.0
 10
20.9042
 20
17.3594
 30
0.0
 10
20.9042
 20
17.3594
 30
0.0
 10
20.9042
 20
17.3594
 30
0.0
 10
20.9042
 20
17.3594
 30
0.0
 10
21.3313
 20
17.4842
 30
0.0
 10
21.3313
 20
17.4842
 30
0.0
 10
21.3313
 20
17.4842
 30
0.0
 10
21.3313
 20
17.4842
 30
0.0
 10
21.7321
 20
17.6616
 30
0.0
 10
21.7321
 20
17.6616
 30
0.0
 10
21.7321
 20
17.6616
 30
0.0
 10
21.7321
 20
17.6616
 30
0.0
 10
22.1066
 20
17.8784
 30
0.0
 10
22.1066
 20
17.8784
 30
0.0
 10
22.1066
 20
17.8784
 30
0.0
 10
22.1066
 20
17.8784
 30
0.0
 10
22.4548
 20
18.1347
 30
0.0
 10
22.4548
 20
18.1347
 30
0.0
 10
22.4548
 20
18.1347
 30
0.0
 10
22.4548
 20
18.1347
 30
0.0
 10
22.7702
 20
18.4435
 30
0.0
 10
22.7702
 20
18.4435
 30
0.0
 10
22.7702
 20
18.4435
 30
0.0
 10
22.7702
 20
18.4435
 30
0.0
 10
23.0527
 20
18.7852
 30
0.0
 10
23.0527
 20
18.7852
 30
0.0
 10
23.0527
 20
18.7852
 30
0.0
 10
23.0527
 20
18.7852
 30
0.0
 10
23.2958
 20
19.1728
 30
0.0
 10
23.2958
 20
19.1728
 30
0.0
 10
23.2958
 20
19.1728
 30
0.0
 10
23.2958
 20
19.1728
 30
0.0
 10
23.493
 20
19.5999
 30
0.0
 10
23.493
 20
19.5999
 30
0.0
 10
23.493
 20
19.5999
 30
0.0
 10
23.493
 20
19.5999
 30
0.0
 10
23.6572
 20
20.073
 30
0.0
 10
23.6572
 20
20.073
 30
0.0
 10
23.6572
 20
20.073
 30
0.0
 10
23.6572
 20
20.073
 30
0.0
 10
23.7689
 20
20.5789
 30
0.0
 10
23.7689
 20
20.5789
 30
0.0
 10
23.7689
 20
20.5789
 30
0.0
 10
23.7689
 20
20.5789
 30
0.0
 10
23.8281
 20
21.1309
 30
0.0
 10
23.8281
 20
21.1309
 30
0.0
 10
23.8281
 20
21.1309
 30
0.0
 10
23.8281
 20
21.1309
 30
0.0
 10
23.8412
 20
21.7156
 30
0.0
 10
23.8412
 20
21.7156
 30
0.0
 10
23.8412
 20
21.7156
 30
0.0
 10
23.8412
 20
21.7156
 30
0.0
 10
23.7952
 20
22.3398
 30
0.0
 10
23.7952
 20
22.3398
 30
0.0
 10
23.7952
 20
22.3398
 30
0.0
 10
23.7952
 20
22.3398
 30
0.0
 10
23.6901
 20
22.9969
 30
0.0
 10
23.6901
 20
22.9969
 30
0.0
 10
23.6901
 20
22.9969
 30
0.0
 10
23.6901
 20
22.9969
 30
0.0
 10
23.5258
 20
23.6934
 30
0.0
 10
23.5258
 20
23.6934
 30
0.0
 10
23.5258
 20
23.6934
 30
0.0
 10
23.5258
 20
23.6934
 30
0.0
 10
23.2958
 20
24.4293
 30
0.0
 10
23.2958
 20
24.4293
 30
0.0
 10
23.2958
 20
24.4293
 30
0.0
 10
23.2958
 20
24.4293
 30
0.0
 10
23.0002
 20
25.198
 30
0.0
 10
23.0002
 20
25.198
 30
0.0
 10
23.0002
 20
25.198
 30
0.0
 10
23.0002
 20
25.198
 30
0.0
 10
23.3221
 20
25.2374
 30
0.0
 10
23.3221
 20
25.2374
 30
0.0
 10
23.3221
 20
25.2374
 30
0.0
 10
23.3221
 20
25.2374
 30
0.0
 10
23.6441
 20
25.244
 30
0.0
 10
23.6441
 20
25.244
 30
0.0
 10
23.6441
 20
25.244
 30
0.0
 10
23.6441
 20
25.244
 30
0.0
 10
23.9529
 20
25.2243
 30
0.0
 10
23.9529
 20
25.2243
 30
0.0
 10
23.9529
 20
25.2243
 30
0.0
 10
23.9529
 20
25.2243
 30
0.0
 10
24.2617
 20
25.1783
 30
0.0
 10
24.2617
 20
25.1783
 30
0.0
 10
24.2617
 20
25.1783
 30
0.0
 10
24.2617
 20
25.1783
 30
0.0
 10
24.5574
 20
25.106
 30
0.0
 10
24.5574
 20
25.106
 30
0.0
 10
24.5574
 20
25.106
 30
0.0
 10
24.5574
 20
25.106
 30
0.0
 10
24.8399
 20
25.014
 30
0.0
 10
24.8399
 20
25.014
 30
0.0
 10
24.8399
 20
25.014
 30
0.0
 10
24.8399
 20
25.014
 30
0.0
 10
25.1159
 20
24.8958
 30
0.0
 10
25.1159
 20
24.8958
 30
0.0
 10
25.1159
 20
24.8958
 30
0.0
 10
25.1159
 20
24.8958
 30
0.0
 10
25.3787
 20
24.7644
 30
0.0
 10
25.3787
 20
24.7644
 30
0.0
 10
25.3787
 20
24.7644
 30
0.0
 10
25.3787
 20
24.7644
 30
0.0
 10
25.6284
 20
24.6067
 30
0.0
 10
25.6284
 20
24.6067
 30
0.0
 10
25.6284
 20
24.6067
 30
0.0
 10
25.6284
 20
24.6067
 30
0.0
 10
25.8649
 20
24.4358
 30
0.0
 10
25.8649
 20
24.4358
 30
0.0
 10
25.8649
 20
24.4358
 30
0.0
 10
25.8649
 20
24.4358
 30
0.0
 10
26.0884
 20
24.2519
 30
0.0
 10
26.0884
 20
24.2519
 30
0.0
 10
26.0884
 20
24.2519
 30
0.0
 10
26.0884
 20
24.2519
 30
0.0
 10
26.292
 20
24.0482
 30
0.0
 10
26.292
 20
24.0482
 30
0.0
 10
26.292
 20
24.0482
 30
0.0
 10
26.292
 20
24.0482
 30
0.0
 10
26.6534
 20
23.6079
 30
0.0
 10
26.6534
 20
23.6079
 30
0.0
 10
26.6534
 20
23.6079
 30
0.0
 10
26.6534
 20
23.6079
 30
0.0
 10
26.8111
 20
23.3714
 30
0.0
 10
26.8111
 20
23.3714
 30
0.0
 10
26.8111
 20
23.3714
 30
0.0
 10
26.8111
 20
23.3714
 30
0.0
 10
26.9491
 20
23.1217
 30
0.0
 10
26.9491
 20
23.1217
 30
0.0
 10
26.9491
 20
23.1217
 30
0.0
 10
26.9491
 20
23.1217
 30
0.0
 10
27.0608
 20
22.8655
 30
0.0
 10
27.0608
 20
22.8655
 30
0.0
 10
27.0608
 20
22.8655
 30
0.0
 10
27.0608
 20
22.8655
 30
0.0
 10
27.1593
 20
22.6092
 30
0.0
 10
27.1593
 20
22.6092
 30
0.0
 10
27.1593
 20
22.6092
 30
0.0
 10
27.1593
 20
22.6092
 30
0.0
 10
27.225
 20
22.3398
 30
0.0
 10
27.225
 20
22.3398
 30
0.0
 10
27.225
 20
22.3398
 30
0.0
 10
27.225
 20
22.3398
 30
0.0
 10
27.2776
 20
22.077
 30
0.0
 10
27.2776
 20
22.077
 30
0.0
 10
27.2776
 20
22.077
 30
0.0
 10
27.2776
 20
22.077
 30
0.0
 10
27.3039
 20
21.8011
 30
0.0
 10
27.3039
 20
21.8011
 30
0.0
 10
27.3039
 20
21.8011
 30
0.0
 10
27.3039
 20
21.8011
 30
0.0
 10
27.3039
 20
21.5317
 30
0.0
 10
27.3039
 20
21.5317
 30
0.0
 10
27.3039
 20
21.5317
 30
0.0
 10
27.3039
 20
21.5317
 30
0.0
 10
27.2776
 20
21.2623
 30
0.0
 10
27.2776
 20
21.2623
 30
0.0
 10
27.2776
 20
21.2623
 30
0.0
 10
27.2776
 20
21.2623
 30
0.0
 10
27.225
 20
20.9929
 30
0.0
 10
27.225
 20
20.9929
 30
0.0
 10
27.225
 20
20.9929
 30
0.0
 10
27.225
 20
20.9929
 30
0.0
 10
27.1462
 20
20.73
 30
0.0
 10
27.1462
 20
20.73
 30
0.0
 10
27.1462
 20
20.73
 30
0.0
 10
27.1462
 20
20.73
 30
0.0
 10
27.0345
 20
20.4738
 30
0.0
 10
27.0345
 20
20.4738
 30
0.0
 10
27.0345
 20
20.4738
 30
0.0
 10
27.0345
 20
20.4738
 30
0.0
 10
26.8965
 20
20.2175
 30
0.0
 10
26.8965
 20
20.2175
 30
0.0
 10
26.8965
 20
20.2175
 30
0.0
 10
26.8965
 20
20.2175
 30
0.0
 10
26.7322
 20
19.9744
 30
0.0
 10
26.7322
 20
19.9744
 30
0.0
 10
26.7322
 20
19.9744
 30
0.0
 10
26.7322
 20
19.9744
 30
0.0
 10
26.5285
 20
19.7379
 30
0.0
 10
26.5285
 20
19.7379
 30
0.0
 10
26.5285
 20
19.7379
 30
0.0
 10
26.5285
 20
19.7379
 30
0.0
 10
26.2986
 20
19.5145
 30
0.0
 10
26.2986
 20
19.5145
 30
0.0
 10
26.2986
 20
19.5145
 30
0.0
 10
26.2986
 20
19.5145
 30
0.0
 10
26.0358
 20
19.2977
 30
0.0
 10
26.0358
 20
19.2977
 30
0.0
 10
26.0358
 20
19.2977
 30
0.0
 10
26.0358
 20
19.2977
 30
0.0
 10
25.7335
 20
19.1006
 30
0.0
 10
25.7335
 20
19.1006
 30
0.0
 10
25.7335
 20
19.1006
 30
0.0
 10
25.7335
 20
19.1006
 30
0.0
 10
25.9241
 20
18.8509
 30
0.0
 10
25.9241
 20
18.8509
 30
0.0
 10
25.9241
 20
18.8509
 30
0.0
 10
25.9241
 20
18.8509
 30
0.0
 10
26.0818
 20
18.6012
 30
0.0
 10
26.0818
 20
18.6012
 30
0.0
 10
26.0818
 20
18.6012
 30
0.0
 10
26.0818
 20
18.6012
 30
0.0
 10
26.2066
 20
18.3515
 30
0.0
 10
26.2066
 20
18.3515
 30
0.0
 10
26.2066
 20
18.3515
 30
0.0
 10
26.2066
 20
18.3515
 30
0.0
 10
26.3117
 20
18.1018
 30
0.0
 10
26.3117
 20
18.1018
 30
0.0
 10
26.3117
 20
18.1018
 30
0.0
 10
26.3117
 20
18.1018
 30
0.0
 10
26.384
 20
17.8587
 30
0.0
 10
26.384
 20
17.8587
 30
0.0
 10
26.384
 20
17.8587
 30
0.0
 10
26.384
 20
17.8587
 30
0.0
 10
26.43
 20
17.6156
 30
0.0
 10
26.43
 20
17.6156
 30
0.0
 10
26.43
 20
17.6156
 30
0.0
 10
26.43
 20
17.6156
 30
0.0
 10
26.4497
 20
17.136
 30
0.0
 10
26.4497
 20
17.136
 30
0.0
 10
26.4497
 20
17.136
 30
0.0
 10
26.4497
 20
17.136
 30
0.0
 10
26.3774
 20
16.6892
 30
0.0
 10
26.3774
 20
16.6892
 30
0.0
 10
26.3774
 20
16.6892
 30
0.0
 10
26.3774
 20
16.6892
 30
0.0
 10
26.2263
 20
16.2686
 30
0.0
 10
26.2263
 20
16.2686
 30
0.0
 10
26.2263
 20
16.2686
 30
0.0
 10
26.2263
 20
16.2686
 30
0.0
 10
26.1212
 20
16.0715
 30
0.0
 10
26.1212
 20
16.0715
 30
0.0
 10
26.1212
 20
16.0715
 30
0.0
 10
26.1212
 20
16.0715
 30
0.0
 10
25.9964
 20
15.8876
 30
0.0
 10
25.9964
 20
15.8876
 30
0.0
 10
25.9964
 20
15.8876
 30
0.0
 10
25.9964
 20
15.8876
 30
0.0
 10
25.7072
 20
15.559
 30
0.0
 10
25.7072
 20
15.559
 30
0.0
 10
25.7072
 20
15.559
 30
0.0
 10
25.7072
 20
15.559
 30
0.0
 10
25.359
 20
15.2831
 30
0.0
 10
25.359
 20
15.2831
 30
0.0
 10
25.359
 20
15.2831
 30
0.0
 10
25.359
 20
15.2831
 30
0.0
 10
25.1619
 20
15.1714
 30
0.0
 10
25.1619
 20
15.1714
 30
0.0
 10
25.1619
 20
15.1714
 30
0.0
 10
25.1619
 20
15.1714
 30
0.0
 10
24.9582
 20
15.0728
 30
0.0
 10
24.9582
 20
15.0728
 30
0.0
 10
24.9582
 20
15.0728
 30
0.0
 10
24.9582
 20
15.0728
 30
0.0
 10
24.5245
 20
14.9348
 30
0.0
 10
24.5245
 20
14.9348
 30
0.0
 10
24.5245
 20
14.9348
 30
0.0
 10
24.5245
 20
14.9348
 30
0.0
 10
24.0646
 20
14.8823
 30
0.0
 10
24.0646
 20
14.8823
 30
0.0
 10
24.0646
 20
14.8823
 30
0.0
 10
24.0646
 20
14.8823
 30
0.0
 10
23.8215
 20
14.8888
 30
0.0
 10
23.8215
 20
14.8888
 30
0.0
 10
23.8215
 20
14.8888
 30
0.0
 10
23.8215
 20
14.8888
 30
0.0
 10
23.5784
 20
14.9151
 30
0.0
 10
23.5784
 20
14.9151
 30
0.0
 10
23.5784
 20
14.9151
 30
0.0
 10
23.5784
 20
14.9151
 30
0.0
 10
23.3353
 20
14.9677
 30
0.0
 10
23.3353
 20
14.9677
 30
0.0
 10
23.3353
 20
14.9677
 30
0.0
 10
23.3353
 20
14.9677
 30
0.0
 10
23.0856
 20
15.04
 30
0.0
 10
23.0856
 20
15.04
 30
0.0
 10
23.0856
 20
15.04
 30
0.0
 10
23.0856
 20
15.04
 30
0.0
 10
22.8359
 20
15.1451
 30
0.0
 10
22.8359
 20
15.1451
 30
0.0
 10
22.8359
 20
15.1451
 30
0.0
 10
22.8359
 20
15.1451
 30
0.0
 10
22.5862
 20
15.2765
 30
0.0
 10
22.5862
 20
15.2765
 30
0.0
 10
22.5862
 20
15.2765
 30
0.0
 10
22.5862
 20
15.2765
 30
0.0
 10
22.3365
 20
15.4342
 30
0.0
 10
22.3365
 20
15.4342
 30
0.0
 10
22.3365
 20
15.4342
 30
0.0
 10
22.3365
 20
15.4342
 30
0.0
 10
22.0934
 20
15.6247
 30
0.0
 10
22.0934
 20
15.6247
 30
0.0
 10
22.0934
 20
15.6247
 30
0.0
 10
22.0934
 20
15.6247
 30
0.0
 10
22.0737
 20
15.2437
 30
0.0
 10
22.0737
 20
15.2437
 30
0.0
 10
22.0737
 20
15.2437
 30
0.0
 10
22.0737
 20
15.2437
 30
0.0
 10
22.0277
 20
14.8823
 30
0.0
 10
22.0277
 20
14.8823
 30
0.0
 10
22.0277
 20
14.8823
 30
0.0
 10
22.0277
 20
14.8823
 30
0.0
 10
21.9555
 20
14.5472
 30
0.0
 10
21.9555
 20
14.5472
 30
0.0
 10
21.9555
 20
14.5472
 30
0.0
 10
21.9555
 20
14.5472
 30
0.0
 10
21.8569
 20
14.2318
 30
0.0
 10
21.8569
 20
14.2318
 30
0.0
 10
21.8569
 20
14.2318
 30
0.0
 10
21.8569
 20
14.2318
 30
0.0
 10
21.7321
 20
13.9361
 30
0.0
 10
21.7321
 20
13.9361
 30
0.0
 10
21.7321
 20
13.9361
 30
0.0
 10
21.7321
 20
13.9361
 30
0.0
 10
21.5875
 20
13.6602
 30
0.0
 10
21.5875
 20
13.6602
 30
0.0
 10
21.5875
 20
13.6602
 30
0.0
 10
21.5875
 20
13.6602
 30
0.0
 10
21.4167
 20
13.417
 30
0.0
 10
21.4167
 20
13.417
 30
0.0
 10
21.4167
 20
13.417
 30
0.0
 10
21.4167
 20
13.417
 30
0.0
 10
21.2327
 20
13.1871
 30
0.0
 10
21.2327
 20
13.1871
 30
0.0
 10
21.2327
 20
13.1871
 30
0.0
 10
21.2327
 20
13.1871
 30
0.0
 10
21.0356
 20
12.9834
 30
0.0
 10
21.0356
 20
12.9834
 30
0.0
 10
21.0356
 20
12.9834
 30
0.0
 10
21.0356
 20
12.9834
 30
0.0
 10
20.8188
 20
12.806
 30
0.0
 10
20.8188
 20
12.806
 30
0.0
 10
20.8188
 20
12.806
 30
0.0
 10
20.8188
 20
12.806
 30
0.0
 10
20.5822
 20
12.6483
 30
0.0
 10
20.5822
 20
12.6483
 30
0.0
 10
20.5822
 20
12.6483
 30
0.0
 10
20.5822
 20
12.6483
 30
0.0
 10
20.3457
 20
12.5103
 30
0.0
 10
20.3457
 20
12.5103
 30
0.0
 10
20.3457
 20
12.5103
 30
0.0
 10
20.3457
 20
12.5103
 30
0.0
 10
20.0894
 20
12.3986
 30
0.0
 10
20.0894
 20
12.3986
 30
0.0
 10
20.0894
 20
12.3986
 30
0.0
 10
20.0894
 20
12.3986
 30
0.0
 10
19.8332
 20
12.3132
 30
0.0
 10
19.8332
 20
12.3132
 30
0.0
 10
19.8332
 20
12.3132
 30
0.0
 10
19.8332
 20
12.3132
 30
0.0
 10
19.2944
 20
12.208
 30
0.0
 10
19.2944
 20
12.208
 30
0.0
 10
19.2944
 20
12.208
 30
0.0
 10
19.2944
 20
12.208
 30
0.0
 10
19.0184
 20
12.1949
 30
0.0
 10
19.0184
 20
12.1949
 30
0.0
 10
19.0184
 20
12.1949
 30
0.0
 10
19.0184
 20
12.1949
 30
0.0
 10
18.7425
 20
12.2015
 30
0.0
 10
18.7425
 20
12.2015
 30
0.0
 10
18.7425
 20
12.2015
 30
0.0
 10
18.7425
 20
12.2015
 30
0.0
 10
18.4665
 20
12.2409
 30
0.0
 10
18.4665
 20
12.2409
 30
0.0
 10
18.4665
 20
12.2409
 30
0.0
 10
18.4665
 20
12.2409
 30
0.0
 10
18.1905
 20
12.2935
 30
0.0
 10
18.1905
 20
12.2935
 30
0.0
 10
18.1905
 20
12.2935
 30
0.0
 10
18.1905
 20
12.2935
 30
0.0
 10
17.9212
 20
12.3789
 30
0.0
 10
17.9212
 20
12.3789
 30
0.0
 10
17.9212
 20
12.3789
 30
0.0
 10
17.9212
 20
12.3789
 30
0.0
 10
17.6583
 20
12.4906
 30
0.0
 10
17.6583
 20
12.4906
 30
0.0
 10
17.6583
 20
12.4906
 30
0.0
 10
17.6583
 20
12.4906
 30
0.0
 10
17.4021
 20
12.622
 30
0.0
 10
17.4021
 20
12.622
 30
0.0
 10
17.4021
 20
12.622
 30
0.0
 10
17.4021
 20
12.622
 30
0.0
 10
17.159
 20
12.7797
 30
0.0
 10
17.159
 20
12.7797
 30
0.0
 10
17.159
 20
12.7797
 30
0.0
 10
17.159
 20
12.7797
 30
0.0
 10
16.9224
 20
12.9637
 30
0.0
 10
16.9224
 20
12.9637
 30
0.0
 10
16.9224
 20
12.9637
 30
0.0
 10
16.9224
 20
12.9637
 30
0.0
 10
16.699
 20
13.1739
 30
0.0
 10
16.699
 20
13.1739
 30
0.0
 10
16.699
 20
13.1739
 30
0.0
 10
16.699
 20
13.1739
 30
0.0
 10
16.4888
 20
13.4105
 30
0.0
 10
16.4888
 20
13.4105
 30
0.0
 10
16.4888
 20
13.4105
 30
0.0
 10
16.4888
 20
13.4105
 30
0.0
 10
16.2982
 20
13.6733
 30
0.0
 10
16.2982
 20
13.6733
 30
0.0
 10
16.2982
 20
13.6733
 30
0.0
 10
16.2982
 20
13.6733
 30
0.0
 10
16.1274
 20
13.9558
 30
0.0
 10
16.1274
 20
13.9558
 30
0.0
 10
16.1274
 20
13.9558
 30
0.0
 10
16.1274
 20
13.9558
 30
0.0
 10
15.9697
 20
14.2712
 30
0.0
 10
15.9697
 20
14.2712
 30
0.0
 10
15.9697
 20
14.2712
 30
0.0
 10
15.9697
 20
14.2712
 30
0.0
 10
15.8383
 20
14.6129
 30
0.0
 10
15.8383
 20
14.6129
 30
0.0
 10
15.8383
 20
14.6129
 30
0.0
 10
15.8383
 20
14.6129
 30
0.0
 10
15.7266
 20
14.9808
 30
0.0
 10
15.7266
 20
14.9808
 30
0.0
 10
15.7266
 20
14.9808
 30
0.0
 10
15.7266
 20
14.9808
 30
0.0
 10
15.2732
 20
14.8494
 30
0.0
 10
15.2732
 20
14.8494
 30
0.0
 10
15.2732
 20
14.8494
 30
0.0
 10
15.2732
 20
14.8494
 30
0.0
 10
14.8461
 20
14.7574
 30
0.0
 10
14.8461
 20
14.7574
 30
0.0
 10
14.8461
 20
14.7574
 30
0.0
 10
14.8461
 20
14.7574
 30
0.0
 10
14.4388
 20
14.7114
 30
0.0
 10
14.4388
 20
14.7114
 30
0.0
 10
14.4388
 20
14.7114
 30
0.0
 10
14.4388
 20
14.7114
 30
0.0
 10
14.0576
 20
14.7049
 30
0.0
 10
14.0576
 20
14.7049
 30
0.0
 10
14.0576
 20
14.7049
 30
0.0
 10
14.0576
 20
14.7049
 30
0.0
 10
13.7028
 20
14.7311
 30
0.0
 10
13.7028
 20
14.7311
 30
0.0
 10
13.7028
 20
14.7311
 30
0.0
 10
13.7028
 20
14.7311
 30
0.0
 10
13.3678
 20
14.7969
 30
0.0
 10
13.3678
 20
14.7969
 30
0.0
 10
13.3678
 20
14.7969
 30
0.0
 10
13.3678
 20
14.7969
 30
0.0
 10
13.059
 20
14.8954
 30
0.0
 10
13.059
 20
14.8954
 30
0.0
 10
13.059
 20
14.8954
 30
0.0
 10
13.059
 20
14.8954
 30
0.0
 10
12.7698
 20
15.0268
 30
0.0
 10
12.7698
 20
15.0268
 30
0.0
 10
12.7698
 20
15.0268
 30
0.0
 10
12.7698
 20
15.0268
 30
0.0
 10
12.5136
 20
15.1845
 30
0.0
 10
12.5136
 20
15.1845
 30
0.0
 10
12.5136
 20
15.1845
 30
0.0
 10
12.5136
 20
15.1845
 30
0.0
 10
12.2771
 20
15.3685
 30
0.0
 10
12.2771
 20
15.3685
 30
0.0
 10
12.2771
 20
15.3685
 30
0.0
 10
12.2771
 20
15.3685
 30
0.0
 10
12.0602
 20
15.5722
 30
0.0
 10
12.0602
 20
15.5722
 30
0.0
 10
12.0602
 20
15.5722
 30
0.0
 10
12.0602
 20
15.5722
 30
0.0
 10
11.8762
 20
15.8021
 30
0.0
 10
11.8762
 20
15.8021
 30
0.0
 10
11.8762
 20
15.8021
 30
0.0
 10
11.8762
 20
15.8021
 30
0.0
 10
11.7185
 20
16.0453
 30
0.0
 10
11.7185
 20
16.0453
 30
0.0
 10
11.7185
 20
16.0453
 30
0.0
 10
11.7185
 20
16.0453
 30
0.0
 10
11.5806
 20
16.3147
 30
0.0
 10
11.5806
 20
16.3147
 30
0.0
 10
11.5806
 20
16.3147
 30
0.0
 10
11.5806
 20
16.3147
 30
0.0
 10
11.4689
 20
16.5906
 30
0.0
 10
11.4689
 20
16.5906
 30
0.0
 10
11.4689
 20
16.5906
 30
0.0
 10
11.4689
 20
16.5906
 30
0.0
 10
11.39
 20
16.8797
 30
0.0
 10
11.39
 20
16.8797
 30
0.0
 10
11.39
 20
16.8797
 30
0.0
 10
11.39
 20
16.8797
 30
0.0
 10
11.3309
 20
17.1754
 30
0.0
 10
11.3309
 20
17.1754
 30
0.0
 10
11.3309
 20
17.1754
 30
0.0
 10
11.3309
 20
17.1754
 30
0.0
 10
11.3046
 20
17.4842
 30
0.0
 10
11.3046
 20
17.4842
 30
0.0
 10
11.3046
 20
17.4842
 30
0.0
 10
11.3046
 20
17.4842
 30
0.0
 10
11.2981
 20
17.7996
 30
0.0
 10
11.2981
 20
17.7996
 30
0.0
 10
11.2981
 20
17.7996
 30
0.0
 10
11.2981
 20
17.7996
 30
0.0
 10
11.3243
 20
18.1084
 30
0.0
 10
11.3243
 20
18.1084
 30
0.0
 10
11.3243
 20
18.1084
 30
0.0
 10
11.3243
 20
18.1084
 30
0.0
 10
11.3703
 20
18.4238
 30
0.0
 10
11.3703
 20
18.4238
 30
0.0
 10
11.3703
 20
18.4238
 30
0.0
 10
11.3703
 20
18.4238
 30
0.0
 10
11.4492
 20
18.7392
 30
0.0
 10
11.4492
 20
18.7392
 30
0.0
 10
11.4492
 20
18.7392
 30
0.0
 10
11.4492
 20
18.7392
 30
0.0
 10
11.5609
 20
19.048
 30
0.0
 10
11.5609
 20
19.048
 30
0.0
 10
11.5609
 20
19.048
 30
0.0
 10
11.5609
 20
19.048
 30
0.0
 10
11.6923
 20
19.3437
 30
0.0
 10
11.6923
 20
19.3437
 30
0.0
 10
11.6923
 20
19.3437
 30
0.0
 10
11.6923
 20
19.3437
 30
0.0
 10
11.8565
 20
19.6394
 30
0.0
 10
11.8565
 20
19.6394
 30
0.0
 10
11.8565
 20
19.6394
 30
0.0
 10
11.8565
 20
19.6394
 30
0.0
 10
12.0471
 20
19.9219
 30
0.0
 10
12.0471
 20
19.9219
 30
0.0
 10
12.0471
 20
19.9219
 30
0.0
 10
12.0471
 20
19.9219
 30
0.0
 10
12.2639
 20
20.1847
 30
0.0
 10
12.2639
 20
20.1847
 30
0.0
 10
12.2639
 20
20.1847
 30
0.0
 10
12.2639
 20
20.1847
 30
0.0
 10
12.5136
 20
20.441
 30
0.0
 10
12.5136
 20
20.441
 30
0.0
 10
12.5136
 20
20.441
 30
0.0
 10
12.5136
 20
20.441
 30
0.0
 10
12.7895
 20
20.6709
 30
0.0
 10
12.7895
 20
20.6709
 30
0.0
 10
12.7895
 20
20.6709
 30
0.0
 10
12.7895
 20
20.6709
 30
0.0
 10
13.0984
 20
20.8812
 30
0.0
 10
13.0984
 20
20.8812
 30
0.0
 10
13.0984
 20
20.8812
 30
0.0
 10
13.0984
 20
20.8812
 30
0.0
 10
13.4335
 20
21.0717
 30
0.0
 10
13.4335
 20
21.0717
 30
0.0
 10
13.4335
 20
21.0717
 30
0.0
 10
13.4335
 20
21.0717
 30
0.0
 10
13.8014
 20
21.236
 30
0.0
 10
13.8014
 20
21.236
 30
0.0
  0
SPLINE
  5
72
330
1F
100
AcDbEntity
  8
Layer 1
370
     5
100
AcDbSpline
210
0.0
220
0.0
230
1.0
 70
    11
 71
     3
 72
   520
 73
   516
 74
     0
 42
0.000000001
 43
0.0000000001
 40
0.0
 40
0.0
 40
0.0
 40
0.0
 40
0.0076923076923077
 40
0.0076923076923077
 40
0.0076923076923077
 40
0.0076923176923077
 40
0.0153846153846154
 40
0.0153846153846154
 40
0.0153846153846154
 40
0.0153846253846154
 40
0.0230769230769231
 40
0.0230769230769231
 40
0.0230769230769231
 40
0.0230769330769231
 40
0.0307692307692308
 40
0.0307692307692308
 40
0.0307692307692308
 40
0.0307692407692308
 40
0.0384615384615385
 40
0.0384615384615385
 40
0.0384615384615385
 40
0.0384615484615385
 40
0.0461538461538462
 40
0.0461538461538462
 40
0.0461538461538462
 40
0.0461538561538462
 40
0.0538461538461538
 40
0.0538461538461538
 40
0.0538461538461538
 40
0.0538461638461538
 40
0.0615384615384615
 40
0.0615384615384615
 40
0.0615384615384615
 40
0.0615384715384615
 40
0.0692307692307692
 40
0.0692307692307692
 40
0.0692307692307692
 40
0.0692307792307692
 40
0.0769230769230769
 40
0.0769230769230769
 40
0.0769230769230769
 40
0.0769230869230769
 40
0.0846153846153846
 40
0.0846153846153846
 40
0.0846153846153846
 40
0.0846153946153846
 40
0.0923076923076923
 40
0.0923076923076923
 40
0.0923076923076923
 40
0.0923077023076923
 40
0.1
 40
0.1
 40
0.1
 40
0.10000001
 40
0.1076923076923077
 40
0.1076923076923077
 40
0.1076923076923077
 40
0.1076923176923077
 40
0.1153846153846154
 40
0.1153846153846154
 40
0.1153846153846154
 40
0.1153846253846154
 40
0.1230769230769231
 40
0.1230769230769231
 40
0.1230769230769231
 40
0.1230769330769231
 40
0.1307692307692308
 40
0.1307692307692308
 40
0.1307692307692308
 40
0.1307692407692308
 40
0.1384615384615385
 40
0.1384615384615385
 40
0.1384615384615385
 40
0.1384615484615385
 40
0.1461538461538462
 40
0.1461538461538462
 40
0.1461538461538462
 40
0.1461538561538462
 40
0.1538461538461539
 40
0.1538461538461539
 40
0.1538461538461539
 40
0.1538461638461539
 40
0.1615384615384615
 40
0.1615384615384615
 40
0.1615384615384615
 40
0.1615384715384615
 40
0.1692307692307692
 40
0.1692307692307692
 40
0.1692307692307692
 40
0.1692307792307692
 40
0.1769230769230769
 40
0.1769230769230769
 40
0.1769230769230769
 40
0.1769230869230769
 40
0.1846153846153846
 40
0.1846153846153846
 40
0.1846153846153846
 40
0.1846153946153846
 40
0.1923076923076923
 40
0.1923076923076923
 40
0.1923076923076923
 40
0.1923077023076923
 40
0.2
 40
0.2
 40
0.2
 40
0.20000001
 40
0.2076923076923077
 40
0.2076923076923077
 40
0.2076923076923077
 40
0.2076923176923077
 40
0.2153846153846154
 40
0.2153846153846154
 40
0.2153846153846154
 40
0.2153846253846154
 40
0.2230769230769231
 40
0.2230769230769231
 40
0.2230769230769231
 40
0.2230769330769231
 40
0.2307692307692308
 40
0.2307692307692308
 40
0.2307692307692308
 40
0.2307692407692308
 40
0.2384615384615385
 40
0.2384615384615385
 40
0.2384615384615385
 40
0.2384615484615385
 40
0.2461538461538462
 40
0.2461538461538462
 40
0.2461538461538462
 40
0.2461538561538462
 40
0.2538461538461538
 40
0.2538461538461538
 40
0.2538461538461538
 40
0.2538461638461538
 40
0.2615384615384616
 40
0.2615384615384616
 40
0.2615384615384616
 40
0.2615384715384616
 40
0.2692307692307692
 40
0.2692307692307692
 40
0.2692307692307692
 40
0.2692307792307692
 40
0.2769230769230769
 40
0.2769230769230769
 40
0.2769230769230769
 40
0.2769230869230768
 40
0.2846153846153846
 40
0.2846153846153846
 40
0.2846153846153846
 40
0.2846153946153846
 40
0.2923076923076923
 40
0.2923076923076923
 40
0.2923076923076923
 40
0.2923077023076923
 40
0.3
 40
0.3
 40
0.3
 40
0.30000001
 40
0.3076923076923077
 40
0.3076923076923077
 40
0.3076923076923077
 40
0.3076923176923077
 40
0.3153846153846154
 40
0.3153846153846154
 40
0.3153846153846154
 40
0.3153846253846154
 40
0.3230769230769231
 40
0.3230769230769231
 40
0.3230769230769231
 40
0.3230769330769231
 40
0.3307692307692308
 40
0.3307692307692308
 40
0.3307692307692308
 40
0.3307692407692308
 40
0.3384615384615385
 40
0.3384615384615385
 40
0.3384615384615385
 40
0.3384615484615385
 40
0.3461538461538461
 40
0.3461538461538461
 40
0.3461538461538461
 40
0.3461538561538461
 40
0.3538461538461539
 40
0.3538461538461539
 40
0.3538461538461539
 40
0.3538461638461539
 40
0.3615384615384615
 40
0.3615384615384615
 40
0.3615384615384615
 40
0.3615384715384615
 40
0.3692307692307693
 40
0.3692307692307693
 40
0.3692307692307693
 40
0.3692307792307693
 40
0.3769230769230769
 40
0.3769230769230769
 40
0.3769230769230769
 40
0.3769230869230769
 40
0.3846153846153846
 40
0.3846153846153846
 40
0.3846153846153846
 40
0.3846153946153846
 40
0.3923076923076923
 40
0.3923076923076923
 40
0.3923076923076923
 40
0.3923077023076923
 40
0.4
 40
0.4
 40
0.4
 40
0.4000000100000001
 40
0.4076923076923077
 40
0.4076923076923077
 40
0.4076923076923077
 40
0.4076923176923077
 40
0.4153846153846155
 40
0.4153846153846155
 40
0.4153846153846155
 40
0.4153846253846155
 40
0.4230769230769231
 40
0.4230769230769231
 40
0.4230769230769231
 40
0.4230769330769232
 40
0.4307692307692309
 40
0.4307692307692309
 40
0.4307692307692309
 40
0.4307692407692308
 40
0.4384615384615385
 40
0.4384615384615385
 40
0.4384615384615385
 40
0.4384615484615386
 40
0.4461538461538462
 40
0.4461538461538462
 40
0.4461538461538462
 40
0.4461538561538462
 40
0.4538461538461539
 40
0.4538461538461539
 40
0.4538461538461539
 40
0.4538461638461538
 40
0.4615384615384616
 40
0.4615384615384616
 40
0.4615384615384616
 40
0.4615384715384617
 40
0.4692307692307692
 40
0.4692307692307692
 40
0.4692307692307692
 40
0.4692307792307692
 40
0.476923076923077
 40
0.476923076923077
 40
0.476923076923077
 40
0.4769230869230769
 40
0.4846153846153846
 40
0.4846153846153846
 40
0.4846153846153846
 40
0.4846153946153846
 40
0.4923076923076923
 40
0.4923076923076923
 40
0.4923076923076923
 40
0.4923077023076923
 40
0.5
 40
0.5
 40
0.5
 40
0.5000000100000001
 40
0.5076923076923077
 40
0.5076923076923077
 40
0.5076923076923077
 40
0.5076923176923077
 40
0.5153846153846154
 40
0.5153846153846154
 40
0.5153846153846154
 40
0.5153846253846154
 40
0.5230769230769231
 40
0.5230769230769231
 40
0.5230769230769231
 40
0.5230769330769232
 40
0.5307692307692308
 40
0.5307692307692308
 40
0.5307692307692308
 40
0.5307692407692308
 40
0.5384615384615385
 40
0.5384615384615385
 40
0.5384615384615385
 40
0.5384615484615385
 40
0.5461538461538461
 40
0.5461538461538461
 40
0.5461538461538461
 40
0.5461538561538461
 40
0.5538461538461539
 40
0.5538461538461539
 40
0.5538461538461539
 40
0.553846163846154
 40
0.5615384615384615
 40
0.5615384615384615
 40
0.5615384615384615
 40
0.5615384715384617
 40
0.5692307692307692
 40
0.5692307692307692
 40
0.5692307692307692
 40
0.5692307792307693
 40
0.5769230769230769
 40
0.5769230769230769
 40
0.5769230769230769
 40
0.576923086923077
 40
0.5846153846153847
 40
0.5846153846153847
 40
0.5846153846153847
 40
0.5846153946153847
 40
0.5923076923076924
 40
0.5923076923076924
 40
0.5923076923076924
 40
0.5923077023076924
 40
0.6
 40
0.6
 40
0.6
 40
0.6000000100000001
 40
0.6076923076923077
 40
0.6076923076923077
 40
0.6076923076923077
 40
0.6076923176923077
 40
0.6153846153846155
 40
0.6153846153846155
 40
0.6153846153846155
 40
0.6153846253846155
 40
0.6230769230769231
 40
0.6230769230769231
 40
0.6230769230769231
 40
0.6230769330769232
 40
0.6307692307692308
 40
0.6307692307692308
 40
0.6307692307692308
 40
0.6307692407692308
 40
0.6384615384615385
 40
0.6384615384615385
 40
0.6384615384615385
 40
0.6384615484615385
 40
0.6461538461538462
 40
0.6461538461538462
 40
0.6461538461538462
 40
0.6461538561538463
 40
0.6538461538461539
 40
0.6538461538461539
 40
0.6538461538461539
 40
0.653846163846154
 40
0.6615384615384615
 40
0.6615384615384615
 40
0.6615384615384615
 40
0.6615384715384617
 40
0.6692307692307692
 40
0.6692307692307692
 40
0.6692307692307692
 40
0.6692307792307693
 40
0.676923076923077
 40
0.676923076923077
 40
0.676923076923077
 40
0.6769230869230771
 40
0.6846153846153847
 40
0.6846153846153847
 40
0.6846153846153847
 40
0.6846153946153847
 40
0.6923076923076924
 40
0.6923076923076924
 40
0.6923076923076924
 40
0.6923077023076924
 40
0.7
 40
0.7
 40
0.7
 40
0.7000000100000001
 40
0.7076923076923078
 40
0.7076923076923078
 40
0.7076923076923078
 40
0.7076923176923078
 40
0.7153846153846155
 40
0.7153846153846155
 40
0.7153846153846155
 40
0.7153846253846155
 40
0.7230769230769231
 40
0.7230769230769231
 40
0.7230769230769231
 40
0.7230769330769232
 40
0.7307692307692308
 40
0.7307692307692308
 40
0.7307692307692308
 40
0.7307692407692308
 40
0.7384615384615385
 40
0.7384615384615385
 40
0.7384615384615385
 40
0.7384615484615386
 40
0.7461538461538462
 40
0.7461538461538462
 40
0.7461538461538462
 40
0.7461538561538462
 40
0.7538461538461539
 40
0.7538461538461539
 40
0.7538461538461539
 40
0.7538461638461539
 40
0.7615384615384615
 40
0.7615384615384615
 40
0.7615384615384615
 40
0.7615384715384616
 40
0.7692307692307693
 40
0.7692307692307693
 40
0.7692307692307693
 40
0.7692307792307693
 40
0.776923076923077
 40
0.776923076923077
 40
0.776923076923077
 40
0.776923086923077
 40
0.7846153846153846
 40
0.7846153846153846
 40
0.7846153846153846
 40
0.7846153946153846
 40
0.7923076923076923
 40
0.7923076923076923
 40
0.7923076923076923
 40
0.7923077023076923
 40
0.8
 40
0.8
 40
0.8
 40
0.8000000100000001
 40
0.8076923076923076
 40
0.8076923076923076
 40
0.8076923076923076
 40
0.8076923176923077
 40
0.8153846153846153
 40
0.8153846153846153
 40
0.8153846153846153
 40
0.8153846253846154
 40
0.8230769230769229
 40
0.8230769230769229
 40
0.8230769230769229
 40
0.8230769330769231
 40
0.8307692307692308
 40
0.8307692307692308
 40
0.8307692307692308
 40
0.8307692407692307
 40
0.8384615384615385
 40
0.8384615384615385
 40
0.8384615384615385
 40
0.8384615484615384
 40
0.8461538461538461
 40
0.8461538461538461
 40
0.8461538461538461
 40
0.8461538561538461
 40
0.8538461538461538
 40
0.8538461538461538
 40
0.8538461538461538
 40
0.8538461638461537
 40
0.8615384615384616
 40
0.8615384615384616
 40
0.8615384615384616
 40
0.8615384715384616
 40
0.8692307692307693
 40
0.8692307692307693
 40
0.8692307692307693
 40
0.8692307792307692
 40
0.876923076923077
 40
0.876923076923077
 40
0.876923076923077
 40
0.8769230869230769
 40
0.8846153846153846
 40
0.8846153846153846
 40
0.8846153846153846
 40
0.8846153946153846
 40
0.8923076923076923
 40
0.8923076923076923
 40
0.8923076923076923
 40
0.8923077023076924
 40
0.9
 40
0.9
 40
0.9
 40
0.9000000100000001
 40
0.9076923076923076
 40
0.9076923076923076
 40
0.9076923076923076
 40
0.9076923176923076
 40
0.9153846153846153
 40
0.9153846153846153
 40
0.9153846153846153
 40
0.9153846253846154
 40
0.9230769230769231
 40
0.9230769230769231
 40
0.9230769230769231
 40
0.9230769330769232
 40
0.9307692307692308
 40
0.9307692307692308
 40
0.9307692307692308
 40
0.9307692407692307
 40
0.9384615384615383
 40
0.9384615384615383
 40
0.9384615384615383
 40
0.9384615484615384
 40
0.9461538461538459
 40
0.9461538461538459
 40
0.9461538461538459
 40
0.9461538561538461
 40
0.953846153846154
 40
0.953846153846154
 40
0.953846153846154
 40
0.9538461638461541
 40
0.9615384615384614
 40
0.9615384615384614
 40
0.9615384615384614
 40
0.9615384715384616
 40
0.9692307692307691
 40
0.9692307692307691
 40
0.9692307692307691
 40
0.9692307792307692
 40
0.9769230769230768
 40
0.9769230769230768
 40
0.9769230769230768
 40
0.9769230869230767
 40
0.9846153846153848
 40
0.9846153846153848
 40
0.9846153846153848
 40
0.9846153946153847
 40
1.0
 40
1.0
 40
1.0
 40
1.0
 10
14.3336
 20
21.5579
 30
0.0
 10
14.3336
 20
21.5579
 30
0.0
 10
15.3061
 20
21.1374
 30
0.0
 10
15.3061
 20
21.1374
 30
0.0
 10
15.3061
 20
21.1374
 30
0.0
 10
15.3061
 20
21.1374
 30
0.0
 10
16.2062
 20
20.8286
 30
0.0
 10
16.2062
 20
20.8286
 30
0.0
 10
16.2062
 20
20.8286
 30
0.0
 10
16.2062
 20
20.8286
 30
0.0
 10
16.6268
 20
20.7103
 30
0.0
 10
16.6268
 20
20.7103
 30
0.0
 10
16.6268
 20
20.7103
 30
0.0
 10
16.6268
 20
20.7103
 30
0.0
 10
17.0341
 20
20.6249
 30
0.0
 10
17.0341
 20
20.6249
 30
0.0
 10
17.0341
 20
20.6249
 30
0.0
 10
17.0341
 20
20.6249
 30
0.0
 10
17.4218
 20
20.5592
 30
0.0
 10
17.4218
 20
20.5592
 30
0.0
 10
17.4218
 20
20.5592
 30
0.0
 10
17.4218
 20
20.5592
 30
0.0
 10
17.7898
 20
20.5132
 30
0.0
 10
17.7898
 20
20.5132
 30
0.0
 10
17.7898
 20
20.5132
 30
0.0
 10
17.7898
 20
20.5132
 30
0.0
 10
18.138
 20
20.5001
 30
0.0
 10
18.138
 20
20.5001
 30
0.0
 10
18.138
 20
20.5001
 30
0.0
 10
18.138
 20
20.5001
 30
0.0
 10
18.4731
 20
20.5001
 30
0.0
 10
18.4731
 20
20.5001
 30
0.0
 10
18.4731
 20
20.5001
 30
0.0
 10
18.4731
 20
20.5001
 30
0.0
 10
18.7885
 20
20.5264
 30
0.0
 10
18.7885
 20
20.5264
 30
0.0
 10
18.7885
 20
20.5264
 30
0.0
 10
18.7885
 20
20.5264
 30
0.0
 10
19.0841
 20
20.5658
 30
0.0
 10
19.0841
 20
20.5658
 30
0.0
 10
19.0841
 20
20.5658
 30
0.0
 10
19.0841
 20
20.5658
 30
0.0
 10
19.3666
 20
20.6315
 30
0.0
 10
19.3666
 20
20.6315
 30
0.0
 10
19.3666
 20
20.6315
 30
0.0
 10
19.3666
 20
20.6315
 30
0.0
 10
19.6295
 20
20.7103
 30
0.0
 10
19.6295
 20
20.7103
 30
0.0
 10
19.6295
 20
20.7103
 30
0.0
 10
19.6295
 20
20.7103
 30
0.0
 10
19.8792
 20
20.8089
 30
0.0
 10
19.8792
 20
20.8089
 30
0.0
 10
19.8792
 20
20.8089
 30
0.0
 10
19.8792
 20
20.8089
 30
0.0
 10
20.1091
 20
20.9206
 30
0.0
 10
20.1091
 20
20.9206
 30
0.0
 10
20.1091
 20
20.9206
 30
0.0
 10
20.1091
 20
20.9206
 30
0.0
 10
20.5231
 20
21.19
 30
0.0
 10
20.5231
 20
21.19
 30
0.0
 10
20.5231
 20
21.19
 30
0.0
 10
20.5231
 20
21.19
 30
0.0
 10
20.7071
 20
21.3477
 30
0.0
 10
20.7071
 20
21.3477
 30
0.0
 10
20.7071
 20
21.3477
 30
0.0
 10
20.7071
 20
21.3477
 30
0.0
 10
20.8779
 20
21.5119
 30
0.0
 10
20.8779
 20
21.5119
 30
0.0
 10
20.8779
 20
21.5119
 30
0.0
 10
20.8779
 20
21.5119
 30
0.0
 10
21.167
 20
21.8799
 30
0.0
 10
21.167
 20
21.8799
 30
0.0
 10
21.167
 20
21.8799
 30
0.0
 10
21.167
 20
21.8799
 30
0.0
 10
21.3904
 20
22.2873
 30
0.0
 10
21.3904
 20
22.2873
 30
0.0
 10
21.3904
 20
22.2873
 30
0.0
 10
21.3904
 20
22.2873
 30
0.0
 10
21.5612
 20
22.721
 30
0.0
 10
21.5612
 20
22.721
 30
0.0
 10
21.5612
 20
22.721
 30
0.0
 10
21.5612
 20
22.721
 30
0.0
 10
21.6729
 20
23.1808
 30
0.0
 10
21.6729
 20
23.1808
 30
0.0
 10
21.6729
 20
23.1808
 30
0.0
 10
21.6729
 20
23.1808
 30
0.0
 10
21.7321
 20
23.6474
 30
0.0
 10
21.7321
 20
23.6474
 30
0.0
 10
21.7321
 20
23.6474
 30
0.0
 10
21.7321
 20
23.6474
 30
0.0
 10
21.7321
 20
24.127
 30
0.0
 10
21.7321
 20
24.127
 30
0.0
 10
21.7321
 20
24.127
 30
0.0
 10
21.7321
 20
24.127
 30
0.0
 10
21.6795
 20
24.6067
 30
0.0
 10
21.6795
 20
24.6067
 30
0.0
 10
21.6795
 20
24.6067
 30
0.0
 10
21.6795
 20
24.6067
 30
0.0
 10
21.5744
 20
25.0732
 30
0.0
 10
21.5744
 20
25.0732
 30
0.0
 10
21.5744
 20
25.0732
 30
0.0
 10
21.5744
 20
25.0732
 30
0.0
 10
21.4232
 20
25.5266
 30
0.0
 10
21.4232
 20
25.5266
 30
0.0
 10
21.4232
 20
25.5266
 30
0.0
 10
21.4232
 20
25.5266
 30
0.0
 10
21.2195
 20
25.9602
 30
0.0
 10
21.2195
 20
25.9602
 30
0.0
 10
21.2195
 20
25.9602
 30
0.0
 10
21.2195
 20
25.9602
 30
0.0
 10
20.9699
 20
26.361
 30
0.0
 10
20.9699
 20
26.361
 30
0.0
 10
20.9699
 20
26.361
 30
0.0
 10
20.9699
 20
26.361
 30
0.0
 10
20.6742
 20
26.7224
 30
0.0
 10
20.6742
 20
26.7224
 30
0.0
 10
20.6742
 20
26.7224
 30
0.0
 10
20.6742
 20
26.7224
 30
0.0
 10
20.3325
 20
27.0312
 30
0.0
 10
20.3325
 20
27.0312
 30
0.0
 10
20.3325
 20
27.0312
 30
0.0
 10
20.3325
 20
27.0312
 30
0.0
 10
19.9514
 20
27.294
 30
0.0
 10
19.9514
 20
27.294
 30
0.0
 10
19.9514
 20
27.294
 30
0.0
 10
19.9514
 20
27.294
 30
0.0
 10
19.5309
 20
27.4912
 30
0.0
 10
19.5309
 20
27.4912
 30
0.0
 10
19.5309
 20
27.4912
 30
0.0
 10
19.5309
 20
27.4912
 30
0.0
 10
19.0644
 20
27.6226
 30
0.0
 10
19.0644
 20
27.6226
 30
0.0
 10
19.0644
 20
27.6226
 30
0.0
 10
19.0644
 20
27.6226
 30
0.0
 10
18.5585
 20
27.6751
 30
0.0
 10
18.5585
 20
27.6751
 30
0.0
 10
18.5585
 20
27.6751
 30
0.0
 10
18.5585
 20
27.6751
 30
0.0
 10
18.2957
 20
27.6751
 30
0.0
 10
18.2957
 20
27.6751
 30
0.0
 10
18.2957
 20
27.6751
 30
0.0
 10
18.2957
 20
27.6751
 30
0.0
 10
18.0197
 20
27.6488
 30
0.0
 10
18.0197
 20
27.6488
 30
0.0
 10
18.0197
 20
27.6488
 30
0.0
 10
18.0197
 20
27.6488
 30
0.0
 10
17.4415
 20
27.524
 30
0.0
 10
17.4415
 20
27.524
 30
0.0
 10
17.4415
 20
27.524
 30
0.0
 10
17.4415
 20
27.524
 30
0.0
 10
16.8304
 20
27.3006
 30
0.0
 10
16.8304
 20
27.3006
 30
0.0
 10
16.8304
 20
27.3006
 30
0.0
 10
16.8304
 20
27.3006
 30
0.0
 10
16.1931
 20
26.9721
 30
0.0
 10
16.1931
 20
26.9721
 30
0.0
 10
16.1931
 20
26.9721
 30
0.0
 10
16.1931
 20
26.9721
 30
0.0
 10
15.858
 20
26.7684
 30
0.0
 10
15.858
 20
26.7684
 30
0.0
 10
15.858
 20
26.7684
 30
0.0
 10
15.858
 20
26.7684
 30
0.0
 10
15.5163
 20
26.5318
 30
0.0
 10
15.5163
 20
26.5318
 30
0.0
 10
15.5163
 20
26.5318
 30
0.0
 10
15.5163
 20
26.5318
 30
0.0
 10
15.4112
 20
26.8078
 30
0.0
 10
15.4112
 20
26.8078
 30
0.0
 10
15.4112
 20
26.8078
 30
0.0
 10
15.4112
 20
26.8078
 30
0.0
 10
15.3323
 20
27.0838
 30
0.0
 10
15.3323
 20
27.0838
 30
0.0
 10
15.3323
 20
27.0838
 30
0.0
 10
15.3323
 20
27.0838
 30
0.0
 10
15.2864
 20
27.3532
 30
0.0
 10
15.2864
 20
27.3532
 30
0.0
 10
15.2864
 20
27.3532
 30
0.0
 10
15.2864
 20
27.3532
 30
0.0
 10
15.2667
 20
27.6291
 30
0.0
 10
15.2667
 20
27.6291
 30
0.0
 10
15.2667
 20
27.6291
 30
0.0
 10
15.2667
 20
27.6291
 30
0.0
 10
15.2995
 20
28.1679
 30
0.0
 10
15.2995
 20
28.1679
 30
0.0
 10
15.2995
 20
28.1679
 30
0.0
 10
15.2995
 20
28.1679
 30
0.0
 10
15.3521
 20
28.4242
 30
0.0
 10
15.3521
 20
28.4242
 30
0.0
 10
15.3521
 20
28.4242
 30
0.0
 10
15.3521
 20
28.4242
 30
0.0
 10
15.4309
 20
28.6804
 30
0.0
 10
15.4309
 20
28.6804
 30
0.0
 10
15.4309
 20
28.6804
 30
0.0
 10
15.4309
 20
28.6804
 30
0.0
 10
15.6412
 20
29.16
 30
0.0
 10
15.6412
 20
29.16
 30
0.0
 10
15.6412
 20
29.16
 30
0.0
 10
15.6412
 20
29.16
 30
0.0
 10
15.9171
 20
29.5937
 30
0.0
 10
15.9171
 20
29.5937
 30
0.0
 10
15.9171
 20
29.5937
 30
0.0
 10
15.9171
 20
29.5937
 30
0.0
 10
16.0814
 20
29.7908
 30
0.0
 10
16.0814
 20
29.7908
 30
0.0
 10
16.0814
 20
29.7908
 30
0.0
 10
16.0814
 20
29.7908
 30
0.0
 10
16.2522
 20
29.9748
 30
0.0
 10
16.2522
 20
29.9748
 30
0.0
 10
16.2522
 20
29.9748
 30
0.0
 10
16.2522
 20
29.9748
 30
0.0
 10
16.4428
 20
30.1457
 30
0.0
 10
16.4428
 20
30.1457
 30
0.0
 10
16.4428
 20
30.1457
 30
0.0
 10
16.4428
 20
30.1457
 30
0.0
 10
16.6399
 20
30.2968
 30
0.0
 10
16.6399
 20
30.2968
 30
0.0
 10
16.6399
 20
30.2968
 30
0.0
 10
16.6399
 20
30.2968
 30
0.0
 10
16.8436
 20
30.4282
 30
0.0
 10
16.8436
 20
30.4282
 30
0.0
 10
16.8436
 20
30.4282
 30
0.0
 10
16.8436
 20
30.4282
 30
0.0
 10
17.0604
 20
30.5399
 30
0.0
 10
17.0604
 20
30.5399
 30
0.0
 10
17.0604
 20
30.5399
 30
0.0
 10
17.0604
 20
30.5399
 30
0.0
 10
17.2772
 20
30.6253
 30
0.0
 10
17.2772
 20
30.6253
 30
0.0
 10
17.2772
 20
30.6253
 30
0.0
 10
17.2772
 20
30.6253
 30
0.0
 10
17.5072
 20
30.6976
 30
0.0
 10
17.5072
 20
30.6976
 30
0.0
 10
17.5072
 20
30.6976
 30
0.0
 10
17.5072
 20
30.6976
 30
0.0
 10
17.7306
 20
30.737
 30
0.0
 10
17.7306
 20
30.737
 30
0.0
 10
17.7306
 20
30.737
 30
0.0
 10
17.7306
 20
30.737
 30
0.0
 10
17.9606
 20
30.7567
 30
0.0
 10
17.9606
 20
30.7567
 30
0.0
 10
17.9606
 20
30.7567
 30
0.0
 10
17.9606
 20
30.7567
 30
0.0
 10
18.1971
 20
30.7501
 30
0.0
 10
18.1971
 20
30.7501
 30
0.0
 10
18.1971
 20
30.7501
 30
0.0
 10
18.1971
 20
30.7501
 30
0.0
 10
18.4271
 20
30.7107
 30
0.0
 10
18.4271
 20
30.7107
 30
0.0
 10
18.4271
 20
30.7107
 30
0.0
 10
18.4271
 20
30.7107
 30
0.0
 10
18.6505
 20
30.645
 30
0.0
 10
18.6505
 20
30.645
 30
0.0
 10
18.6505
 20
30.645
 30
0.0
 10
18.6505
 20
30.645
 30
0.0
 10
18.8739
 20
30.553
 30
0.0
 10
18.8739
 20
30.553
 30
0.0
 10
18.8739
 20
30.553
 30
0.0
 10
18.8739
 20
30.553
 30
0.0
 10
19.0973
 20
30.4216
 30
0.0
 10
19.0973
 20
30.4216
 30
0.0
 10
19.0973
 20
30.4216
 30
0.0
 10
19.0973
 20
30.4216
 30
0.0
 10
19.3075
 20
30.2639
 30
0.0
 10
19.3075
 20
30.2639
 30
0.0
 10
19.3075
 20
30.2639
 30
0.0
 10
19.3075
 20
30.2639
 30
0.0
 10
19.5112
 20
30.0668
 30
0.0
 10
19.5112
 20
30.0668
 30
0.0
 10
19.5112
 20
30.0668
 30
0.0
 10
19.5112
 20
30.0668
 30
0.0
 10
19.7083
 20
29.8368
 30
0.0
 10
19.7083
 20
29.8368
 30
0.0
 10
19.7083
 20
29.8368
 30
0.0
 10
19.7083
 20
29.8368
 30
0.0
 10
19.8923
 20
29.5674
 30
0.0
 10
19.8923
 20
29.5674
 30
0.0
 10
19.8923
 20
29.5674
 30
0.0
 10
19.8923
 20
29.5674
 30
0.0
 10
20.0631
 20
29.2586
 30
0.0
 10
20.0631
 20
29.2586
 30
0.0
 10
20.0631
 20
29.2586
 30
0.0
 10
20.0631
 20
29.2586
 30
0.0
 10
20.2734
 20
29.3703
 30
0.0
 10
20.2734
 20
29.3703
 30
0.0
 10
20.2734
 20
29.3703
 30
0.0
 10
20.2734
 20
29.3703
 30
0.0
 10
20.4837
 20
29.4557
 30
0.0
 10
20.4837
 20
29.4557
 30
0.0
 10
20.4837
 20
29.4557
 30
0.0
 10
20.4837
 20
29.4557
 30
0.0
 10
20.7005
 20
29.5149
 30
0.0
 10
20.7005
 20
29.5149
 30
0.0
 10
20.7005
 20
29.5149
 30
0.0
 10
20.7005
 20
29.5149
 30
0.0
 10
20.9108
 20
29.5411
 30
0.0
 10
20.9108
 20
29.5411
 30
0.0
 10
20.9108
 20
29.5411
 30
0.0
 10
20.9108
 20
29.5411
 30
0.0
 10
21.121
 20
29.5411
 30
0.0
 10
21.121
 20
29.5411
 30
0.0
 10
21.121
 20
29.5411
 30
0.0
 10
21.121
 20
29.5411
 30
0.0
 10
21.3313
 20
29.5214
 30
0.0
 10
21.3313
 20
29.5214
 30
0.0
 10
21.3313
 20
29.5214
 30
0.0
 10
21.3313
 20
29.5214
 30
0.0
 10
21.5349
 20
29.4754
 30
0.0
 10
21.5349
 20
29.4754
 30
0.0
 10
21.5349
 20
29.4754
 30
0.0
 10
21.5349
 20
29.4754
 30
0.0
 10
21.7386
 20
29.4032
 30
0.0
 10
21.7386
 20
29.4032
 30
0.0
 10
21.7386
 20
29.4032
 30
0.0
 10
21.7386
 20
29.4032
 30
0.0
 10
22.1197
 20
29.2126
 30
0.0
 10
22.1197
 20
29.2126
 30
0.0
 10
22.1197
 20
29.2126
 30
0.0
 10
22.1197
 20
29.2126
 30
0.0
 10
22.2971
 20
29.0944
 30
0.0
 10
22.2971
 20
29.0944
 30
0.0
 10
22.2971
 20
29.0944
 30
0.0
 10
22.2971
 20
29.0944
 30
0.0
 10
22.468
 20
28.9564
 30
0.0
 10
22.468
 20
28.9564
 30
0.0
 10
22.468
 20
28.9564
 30
0.0
 10
22.468
 20
28.9564
 30
0.0
 10
22.7768
 20
28.641
 30
0.0
 10
22.7768
 20
28.641
 30
0.0
 10
22.7768
 20
28.641
 30
0.0
 10
22.7768
 20
28.641
 30
0.0
 10
23.033
 20
28.2796
 30
0.0
 10
23.033
 20
28.2796
 30
0.0
 10
23.033
 20
28.2796
 30
0.0
 10
23.033
 20
28.2796
 30
0.0
 10
23.2367
 20
27.8919
 30
0.0
 10
23.2367
 20
27.8919
 30
0.0
 10
23.2367
 20
27.8919
 30
0.0
 10
23.2367
 20
27.8919
 30
0.0
 10
23.309
 20
27.6883
 30
0.0
 10
23.309
 20
27.6883
 30
0.0
 10
23.309
 20
27.6883
 30
0.0
 10
23.309
 20
27.6883
 30
0.0
 10
23.3681
 20
27.4846
 30
0.0
 10
23.3681
 20
27.4846
 30
0.0
 10
23.3681
 20
27.4846
 30
0.0
 10
23.3681
 20
27.4846
 30
0.0
 10
23.4207
 20
27.0706
 30
0.0
 10
23.4207
 20
27.0706
 30
0.0
 10
23.4207
 20
27.0706
 30
0.0
 10
23.4207
 20
27.0706
 30
0.0
 10
23.4207
 20
26.8604
 30
0.0
 10
23.4207
 20
26.8604
 30
0.0
 10
23.4207
 20
26.8604
 30
0.0
 10
23.4207
 20
26.8604
 30
0.0
 10
23.3944
 20
26.6567
 30
0.0
 10
23.3944
 20
26.6567
 30
0.0
 10
23.3944
 20
26.6567
 30
0.0
 10
23.3944
 20
26.6567
 30
0.0
 10
23.3484
 20
26.4596
 30
0.0
 10
23.3484
 20
26.4596
 30
0.0
 10
23.3484
 20
26.4596
 30
0.0
 10
23.3484
 20
26.4596
 30
0.0
 10
23.2696
 20
26.2624
 30
0.0
 10
23.2696
 20
26.2624
 30
0.0
 10
23.2696
 20
26.2624
 30
0.0
 10
23.2696
 20
26.2624
 30
0.0
 10
23.171
 20
26.0785
 30
0.0
 10
23.171
 20
26.0785
 30
0.0
 10
23.171
 20
26.0785
 30
0.0
 10
23.171
 20
26.0785
 30
0.0
 10
23.0462
 20
25.9011
 30
0.0
 10
23.0462
 20
25.9011
 30
0.0
 10
23.0462
 20
25.9011
 30
0.0
 10
23.0462
 20
25.9011
 30
0.0
 10
22.8951
 20
25.7302
 30
0.0
 10
22.8951
 20
25.7302
 30
0.0
 10
22.8951
 20
25.7302
 30
0.0
 10
22.8951
 20
25.7302
 30
0.0
 10
22.7111
 20
25.5725
 30
0.0
 10
22.7111
 20
25.5725
 30
0.0
 10
22.7111
 20
25.5725
 30
0.0
 10
22.7111
 20
25.5725
 30
0.0
 10
22.4942
 20
25.428
 30
0.0
 10
22.4942
 20
25.428
 30
0.0
 10
22.4942
 20
25.428
 30
0.0
 10
22.4942
 20
25.428
 30
0.0
 10
22.2511
 20
25.3032
 30
0.0
 10
22.2511
 20
25.3032
 30
0.0
 10
22.2511
 20
25.3032
 30
0.0
 10
22.2511
 20
25.3032
 30
0.0
 10
22.5665
 20
24.6264
 30
0.0
 10
22.5665
 20
24.6264
 30
0.0
 10
22.5665
 20
24.6264
 30
0.0
 10
22.5665
 20
24.6264
 30
0.0
 10
22.8162
 20
23.9693
 30
0.0
 10
22.8162
 20
23.9693
 30
0.0
 10
22.8162
 20
23.9693
 30
0.0
 10
22.8162
 20
23.9693
 30
0.0
 10
23.0068
 20
23.3451
 30
0.0
 10
23.0068
 20
23.3451
 30
0.0
 10
23.0068
 20
23.3451
 30
0.0
 10
23.0068
 20
23.3451
 30
0.0
 10
23.1447
 20
22.7538
 30
0.0
 10
23.1447
 20
22.7538
 30
0.0
 10
23.1447
 20
22.7538
 30
0.0
 10
23.1447
 20
22.7538
 30
0.0
 10
23.2236
 20
22.1822
 30
0.0
 10
23.2236
 20
22.1822
 30
0.0
 10
23.2236
 20
22.1822
 30
0.0
 10
23.2236
 20
22.1822
 30
0.0
 10
23.2499
 20
21.6499
 30
0.0
 10
23.2499
 20
21.6499
 30
0.0
 10
23.2499
 20
21.6499
 30
0.0
 10
23.2499
 20
21.6499
 30
0.0
 10
23.2236
 20
21.144
 30
0.0
 10
23.2236
 20
21.144
 30
0.0
 10
23.2236
 20
21.144
 30
0.0
 10
23.2236
 20
21.144
 30
0.0
 10
23.1513
 20
20.6709
 30
0.0
 10
23.1513
 20
20.6709
 30
0.0
 10
23.1513
 20
20.6709
 30
0.0
 10
23.1513
 20
20.6709
 30
0.0
 10
23.0396
 20
20.2373
 30
0.0
 10
23.0396
 20
20.2373
 30
0.0
 10
23.0396
 20
20.2373
 30
0.0
 10
23.0396
 20
20.2373
 30
0.0
 10
22.8819
 20
19.8299
 30
0.0
 10
22.8819
 20
19.8299
 30
0.0
 10
22.8819
 20
19.8299
 30
0.0
 10
22.8819
 20
19.8299
 30
0.0
 10
22.6914
 20
19.4619
 30
0.0
 10
22.6914
 20
19.4619
 30
0.0
 10
22.6914
 20
19.4619
 30
0.0
 10
22.6914
 20
19.4619
 30
0.0
 10
22.4548
 20
19.1268
 30
0.0
 10
22.4548
 20
19.1268
 30
0.0
 10
22.4548
 20
19.1268
 30
0.0
 10
22.4548
 20
19.1268
 30
0.0
 10
22.192
 20
18.8312
 30
0.0
 10
22.192
 20
18.8312
 30
0.0
 10
22.192
 20
18.8312
 30
0.0
 10
22.192
 20
18.8312
 30
0.0
 10
21.8963
 20
18.5749
 30
0.0
 10
21.8963
 20
18.5749
 30
0.0
 10
21.8963
 20
18.5749
 30
0.0
 10
21.8963
 20
18.5749
 30
0.0
 10
21.5744
 20
18.3581
 30
0.0
 10
21.5744
 20
18.3581
 30
0.0
 10
21.5744
 20
18.3581
 30
0.0
 10
21.5744
 20
18.3581
 30
0.0
 10
21.2261
 20
18.1741
 30
0.0
 10
21.2261
 20
18.1741
 30
0.0
 10
21.2261
 20
18.1741
 30
0.0
 10
21.2261
 20
18.1741
 30
0.0
 10
20.8516
 20
18.0427
 30
0.0
 10
20.8516
 20
18.0427
 30
0.0
 10
20.8516
 20
18.0427
 30
0.0
 10
20.8516
 20
18.0427
 30
0.0
 10
20.4574
 20
17.9441
 30
0.0
 10
20.4574
 20
17.9441
 30
0.0
 10
20.4574
 20
17.9441
 30
0.0
 10
20.4574
 20
17.9441
 30
0.0
 10
20.05
 20
17.8916
 30
0.0
 10
20.05
 20
17.8916
 30
0.0
 10
20.05
 20
17.8916
 30
0.0
 10
20.05
 20
17.8916
 30
0.0
 10
19.6229
 20
17.885
 30
0.0
 10
19.6229
 20
17.885
 30
0.0
 10
19.6229
 20
17.885
 30
0.0
 10
19.6229
 20
17.885
 30
0.0
 10
19.1893
 20
17.9179
 30
0.0
 10
19.1893
 20
17.9179
 30
0.0
 10
19.1893
 20
17.9179
 30
0.0
 10
19.1893
 20
17.9179
 30
0.0
 10
18.7425
 20
18.0032
 30
0.0
 10
18.7425
 20
18.0032
 30
0.0
 10
18.7425
 20
18.0032
 30
0.0
 10
18.7425
 20
18.0032
 30
0.0
 10
18.2891
 20
18.1347
 30
0.0
 10
18.2891
 20
18.1347
 30
0.0
 10
18.2891
 20
18.1347
 30
0.0
 10
18.2891
 20
18.1347
 30
0.0
 10
17.8292
 20
18.3055
 30
0.0
 10
17.8292
 20
18.3055
 30
0.0
 10
17.8292
 20
18.3055
 30
0.0
 10
17.8292
 20
18.3055
 30
0.0
 10
17.3692
 20
18.5355
 30
0.0
 10
17.3692
 20
18.5355
 30
0.0
 10
17.3692
 20
18.5355
 30
0.0
 10
17.3692
 20
18.5355
 30
0.0
 10
16.9093
 20
18.8114
 30
0.0
 10
16.9093
 20
18.8114
 30
0.0
 10
16.9093
 20
18.8114
 30
0.0
 10
16.9093
 20
18.8114
 30
0.0
 10
16.4559
 20
19.1334
 30
0.0
 10
16.4559
 20
19.1334
 30
0.0
 10
16.4559
 20
19.1334
 30
0.0
 10
16.4559
 20
19.1334
 30
0.0
 10
16.0091
 20
19.5145
 30
0.0
 10
16.0091
 20
19.5145
 30
0.0
 10
16.0091
 20
19.5145
 30
0.0
 10
16.0091
 20
19.5145
 30
0.0
 10
15.5689
 20
19.9416
 30
0.0
 10
15.5689
 20
19.9416
 30
0.0
 10
15.5689
 20
19.9416
 30
0.0
 10
15.5689
 20
19.9416
 30
0.0
 10
15.1418
 20
20.4278
 30
0.0
 10
15.1418
 20
20.4278
 30
0.0
 10
15.1418
 20
20.4278
 30
0.0
 10
15.1418
 20
20.4278
 30
0.0
 10
14.7279
 20
20.9666
 30
0.0
 10
14.7279
 20
20.9666
 30
0.0
 10
14.7279
 20
20.9666
 30
0.0
 10
14.7279
 20
20.9666
 30
0.0
 10
14.3336
 20
21.5579
 30
0.0
 10
14.3336
 20
21.5579
 30
0.0
  0
SPLINE
  5
73
330
1F
100
AcDbEntity
  8
Layer 1
370
     5
100
AcDbSpline
210
0.0
220
0.0
230
1.0
 70
    11
 71
     3
 72
   208
 73
   204
 74
     0
 42
0.000000001
 43
0.0000000001
 40
0.0
 40
0.0
 40
0.0
 40
0.0
 40
0.0192307692307692
 40
0.0192307692307692
 40
0.0192307692307692
 40
0.0192307792307692
 40
0.0384615384615385
 40
0.0384615384615385
 40
0.0384615384615385
 40
0.0384615484615385
 40
0.0576923076923077
 40
0.0576923076923077
 40
0.0576923076923077
 40
0.0576923176923077
 40
0.0769230769230769
 40
0.0769230769230769
 40
0.0769230769230769
 40
0.0769230869230769
 40
0.0961538461538462
 40
0.0961538461538462
 40
0.0961538461538462
 40
0.0961538561538462
 40
0.1153846153846154
 40
0.1153846153846154
 40
0.1153846153846154
 40
0.1153846253846154
 40
0.1346153846153846
 40
0.1346153846153846
 40
0.1346153846153846
 40
0.1346153946153846
 40
0.1538461538461539
 40
0.1538461538461539
 40
0.1538461538461539
 40
0.1538461638461539
 40
0.1730769230769231
 40
0.1730769230769231
 40
0.1730769230769231
 40
0.1730769330769231
 40
0.1923076923076923
 40
0.1923076923076923
 40
0.1923076923076923
 40
0.1923077023076923
 40
0.2115384615384615
 40
0.2115384615384615
 40
0.2115384615384615
 40
0.2115384715384615
 40
0.2307692307692308
 40
0.2307692307692308
 40
0.2307692307692308
 40
0.2307692407692308
 40
0.25
 40
0.25
 40
0.25
 40
0.25000001
 40
0.2692307692307692
 40
0.2692307692307692
 40
0.2692307692307692
 40
0.2692307792307692
 40
0.2884615384615384
 40
0.2884615384615384
 40
0.2884615384615384
 40
0.2884615484615384
 40
0.3076923076923077
 40
0.3076923076923077
 40
0.3076923076923077
 40
0.3076923176923077
 40
0.3269230769230769
 40
0.3269230769230769
 40
0.3269230769230769
 40
0.3269230869230769
 40
0.3461538461538461
 40
0.3461538461538461
 40
0.3461538461538461
 40
0.3461538561538461
 40
0.3653846153846154
 40
0.3653846153846154
 40
0.3653846153846154
 40
0.3653846253846154
 40
0.3846153846153846
 40
0.3846153846153846
 40
0.3846153846153846
 40
0.3846153946153846
 40
0.403846153846154
 40
0.403846153846154
 40
0.403846153846154
 40
0.403846163846154
 40
0.4230769230769231
 40
0.4230769230769231
 40
0.4230769230769231
 40
0.4230769330769232
 40
0.4423076923076924
 40
0.4423076923076924
 40
0.4423076923076924
 40
0.4423077023076923
 40
0.4615384615384616
 40
0.4615384615384616
 40
0.4615384615384616
 40
0.4615384715384617
 40
0.4807692307692308
 40
0.4807692307692308
 40
0.4807692307692308
 40
0.4807692407692308
 40
0.5
 40
0.5
 40
0.5
 40
0.5000000100000001
 40
0.5192307692307693
 40
0.5192307692307693
 40
0.5192307692307693
 40
0.5192307792307693
 40
0.5384615384615385
 40
0.5384615384615385
 40
0.5384615384615385
 40
0.5384615484615385
 40
0.5576923076923077
 40
0.5576923076923077
 40
0.5576923076923077
 40
0.5576923176923078
 40
0.5769230769230769
 40
0.5769230769230769
 40
0.5769230769230769
 40
0.576923086923077
 40
0.5961538461538462
 40
0.5961538461538462
 40
0.5961538461538462
 40
0.5961538561538462
 40
0.6153846153846155
 40
0.6153846153846155
 40
0.6153846153846155
 40
0.6153846253846155
 40
0.6346153846153846
 40
0.6346153846153846
 40
0.6346153846153846
 40
0.6346153946153846
 40
0.6538461538461539
 40
0.6538461538461539
 40
0.6538461538461539
 40
0.653846163846154
 40
0.6730769230769232
 40
0.6730769230769232
 40
0.6730769230769232
 40
0.6730769330769232
 40
0.6923076923076924
 40
0.6923076923076924
 40
0.6923076923076924
 40
0.6923077023076924
 40
0.7115384615384616
 40
0.7115384615384616
 40
0.7115384615384616
 40
0.7115384715384617
 40
0.7307692307692308
 40
0.7307692307692308
 40
0.7307692307692308
 40
0.7307692407692308
 40
0.75
 40
0.75
 40
0.75
 40
0.7500000100000001
 40
0.7692307692307693
 40
0.7692307692307693
 40
0.7692307692307693
 40
0.7692307792307693
 40
0.7884615384615385
 40
0.7884615384615385
 40
0.7884615384615385
 40
0.7884615484615385
 40
0.8076923076923076
 40
0.8076923076923076
 40
0.8076923076923076
 40
0.8076923176923077
 40
0.8269230769230768
 40
0.8269230769230768
 40
0.8269230769230768
 40
0.8269230869230769
 40
0.8461538461538461
 40
0.8461538461538461
 40
0.8461538461538461
 40
0.8461538561538461
 40
0.8653846153846153
 40
0.8653846153846153
 40
0.8653846153846153
 40
0.8653846253846154
 40
0.8846153846153846
 40
0.8846153846153846
 40
0.8846153846153846
 40
0.8846153946153846
 40
0.903846153846154
 40
0.903846153846154
 40
0.903846153846154
 40
0.9038461638461539
 40
0.9230769230769231
 40
0.9230769230769231
 40
0.9230769230769231
 40
0.9230769330769232
 40
0.9423076923076923
 40
0.9423076923076923
 40
0.9423076923076923
 40
0.9423077023076924
 40
0.9615384615384614
 40
0.9615384615384614
 40
0.9615384615384614
 40
0.9615384715384616
 40
1.0
 40
1.0
 40
1.0
 40
1.0
 10
17.5466
 20
21.236
 30
0.0
 10
17.5466
 20
21.236
 30
0.0
 10
17.1787
 20
21.2491
 30
0.0
 10
17.1787
 20
21.2491
 30
0.0
 10
17.1787
 20
21.2491
 30
0.0
 10
17.1787
 20
21.2491
 30
0.0
 10
16.8173
 20
21.2885
 30
0.0
 10
16.8173
 20
21.2885
 30
0.0
 10
16.8173
 20
21.2885
 30
0.0
 10
16.8173
 20
21.2885
 30
0.0
 10
16.469
 20
21.3608
 30
0.0
 10
16.469
 20
21.3608
 30
0.0
 10
16.469
 20
21.3608
 30
0.0
 10
16.469
 20
21.3608
 30
0.0
 10
16.1339
 20
21.4528
 30
0.0
 10
16.1339
 20
21.4528
 30
0.0
 10
16.1339
 20
21.4528
 30
0.0
 10
16.1339
 20
21.4528
 30
0.0
 10
15.8054
 20
21.5645
 30
0.0
 10
15.8054
 20
21.5645
 30
0.0
 10
15.8054
 20
21.5645
 30
0.0
 10
15.8054
 20
21.5645
 30
0.0
 10
15.4901
 20
21.7025
 30
0.0
 10
15.4901
 20
21.7025
 30
0.0
 10
15.4901
 20
21.7025
 30
0.0
 10
15.4901
 20
21.7025
 30
0.0
 10
15.1944
 20
21.8668
 30
0.0
 10
15.1944
 20
21.8668
 30
0.0
 10
15.1944
 20
21.8668
 30
0.0
 10
15.1944
 20
21.8668
 30
0.0
 10
14.9118
 20
22.0442
 30
0.0
 10
14.9118
 20
22.0442
 30
0.0
 10
14.9118
 20
22.0442
 30
0.0
 10
14.9118
 20
22.0442
 30
0.0
 10
14.6425
 20
22.2413
 30
0.0
 10
14.6425
 20
22.2413
 30
0.0
 10
14.6425
 20
22.2413
 30
0.0
 10
14.6425
 20
22.2413
 30
0.0
 10
14.3862
 20
22.4515
 30
0.0
 10
14.3862
 20
22.4515
 30
0.0
 10
14.3862
 20
22.4515
 30
0.0
 10
14.3862
 20
22.4515
 30
0.0
 10
14.1562
 20
22.6815
 30
0.0
 10
14.1562
 20
22.6815
 30
0.0
 10
14.1562
 20
22.6815
 30
0.0
 10
14.1562
 20
22.6815
 30
0.0
 10
13.9394
 20
22.9246
 30
0.0
 10
13.9394
 20
22.9246
 30
0.0
 10
13.9394
 20
22.9246
 30
0.0
 10
13.9394
 20
22.9246
 30
0.0
 10
13.7423
 20
23.1808
 30
0.0
 10
13.7423
 20
23.1808
 30
0.0
 10
13.7423
 20
23.1808
 30
0.0
 10
13.7423
 20
23.1808
 30
0.0
 10
13.5583
 20
23.4503
 30
0.0
 10
13.5583
 20
23.4503
 30
0.0
 10
13.5583
 20
23.4503
 30
0.0
 10
13.5583
 20
23.4503
 30
0.0
 10
13.4072
 20
23.7262
 30
0.0
 10
13.4072
 20
23.7262
 30
0.0
 10
13.4072
 20
23.7262
 30
0.0
 10
13.4072
 20
23.7262
 30
0.0
 10
13.2692
 20
24.0088
 30
0.0
 10
13.2692
 20
24.0088
 30
0.0
 10
13.2692
 20
24.0088
 30
0.0
 10
13.2692
 20
24.0088
 30
0.0
 10
13.1575
 20
24.2979
 30
0.0
 10
13.1575
 20
24.2979
 30
0.0
 10
13.1575
 20
24.2979
 30
0.0
 10
13.1575
 20
24.2979
 30
0.0
 10
13.0655
 20
24.6001
 30
0.0
 10
13.0655
 20
24.6001
 30
0.0
 10
13.0655
 20
24.6001
 30
0.0
 10
13.0655
 20
24.6001
 30
0.0
 10
12.9998
 20
24.9023
 30
0.0
 10
12.9998
 20
24.9023
 30
0.0
 10
12.9998
 20
24.9023
 30
0.0
 10
12.9998
 20
24.9023
 30
0.0
 10
12.9604
 20
25.2046
 30
0.0
 10
12.9604
 20
25.2046
 30
0.0
 10
12.9604
 20
25.2046
 30
0.0
 10
12.9604
 20
25.2046
 30
0.0
 10
12.9473
 20
25.5134
 30
0.0
 10
12.9473
 20
25.5134
 30
0.0
 10
12.9473
 20
25.5134
 30
0.0
 10
12.9473
 20
25.5134
 30
0.0
 10
12.9604
 20
25.8222
 30
0.0
 10
12.9604
 20
25.8222
 30
0.0
 10
12.9604
 20
25.8222
 30
0.0
 10
12.9604
 20
25.8222
 30
0.0
 10
12.9998
 20
26.131
 30
0.0
 10
12.9998
 20
26.131
 30
0.0
 10
12.9998
 20
26.131
 30
0.0
 10
12.9998
 20
26.131
 30
0.0
 10
13.0721
 20
26.4333
 30
0.0
 10
13.0721
 20
26.4333
 30
0.0
 10
13.0721
 20
26.4333
 30
0.0
 10
13.0721
 20
26.4333
 30
0.0
 10
13.1707
 20
26.7355
 30
0.0
 10
13.1707
 20
26.7355
 30
0.0
 10
13.1707
 20
26.7355
 30
0.0
 10
13.1707
 20
26.7355
 30
0.0
 10
13.3021
 20
27.0312
 30
0.0
 10
13.3021
 20
27.0312
 30
0.0
 10
13.3021
 20
27.0312
 30
0.0
 10
13.3021
 20
27.0312
 30
0.0
 10
13.4597
 20
27.3137
 30
0.0
 10
13.4597
 20
27.3137
 30
0.0
 10
13.4597
 20
27.3137
 30
0.0
 10
13.4597
 20
27.3137
 30
0.0
 10
13.6569
 20
27.5963
 30
0.0
 10
13.6569
 20
27.5963
 30
0.0
 10
13.6569
 20
27.5963
 30
0.0
 10
13.6569
 20
27.5963
 30
0.0
 10
13.8803
 20
27.8722
 30
0.0
 10
13.8803
 20
27.8722
 30
0.0
 10
13.8803
 20
27.8722
 30
0.0
 10
13.8803
 20
27.8722
 30
0.0
 10
14.1431
 20
28.1285
 30
0.0
 10
14.1431
 20
28.1285
 30
0.0
 10
14.1431
 20
28.1285
 30
0.0
 10
14.1431
 20
28.1285
 30
0.0
 10
14.4388
 20
28.3781
 30
0.0
 10
14.4388
 20
28.3781
 30
0.0
 10
14.4388
 20
28.3781
 30
0.0
 10
14.4388
 20
28.3781
 30
0.0
 10
14.7673
 20
28.6147
 30
0.0
 10
14.7673
 20
28.6147
 30
0.0
 10
14.7673
 20
28.6147
 30
0.0
 10
14.7673
 20
28.6147
 30
0.0
 10
14.7476
 20
28.6081
 30
0.0
 10
14.7476
 20
28.6081
 30
0.0
 10
14.7476
 20
28.6081
 30
0.0
 10
14.7476
 20
28.6081
 30
0.0
 10
14.7541
 20
28.6147
 30
0.0
 10
14.7541
 20
28.6147
 30
0.0
 10
14.7541
 20
28.6147
 30
0.0
 10
14.7541
 20
28.6147
 30
0.0
 10
14.7673
 20
28.6147
 30
0.0
 10
14.7673
 20
28.6147
 30
0.0
 10
14.7673
 20
28.6147
 30
0.0
 10
14.7673
 20
28.6147
 30
0.0
 10
14.6293
 20
28.1022
 30
0.0
 10
14.6293
 20
28.1022
 30
0.0
 10
14.6293
 20
28.1022
 30
0.0
 10
14.6293
 20
28.1022
 30
0.0
 10
14.5307
 20
27.5766
 30
0.0
 10
14.5307
 20
27.5766
 30
0.0
 10
14.5307
 20
27.5766
 30
0.0
 10
14.5307
 20
27.5766
 30
0.0
 10
14.4782
 20
27.0443
 30
0.0
 10
14.4782
 20
27.0443
 30
0.0
 10
14.4782
 20
27.0443
 30
0.0
 10
14.4782
 20
27.0443
 30
0.0
 10
14.4585
 20
26.49900000000001
 30
0.0
 10
14.4585
 20
26.49900000000001
 30
0.0
 10
14.4585
 20
26.49900000000001
 30
0.0
 10
14.4585
 20
26.49900000000001
 30
0.0
 10
14.4847
 20
25.9536
 30
0.0
 10
14.4847
 20
25.9536
 30
0.0
 10
14.4847
 20
25.9536
 30
0.0
 10
14.4847
 20
25.9536
 30
0.0
 10
14.5505
 20
25.4149
 30
0.0
 10
14.5505
 20
25.4149
 30
0.0
 10
14.5505
 20
25.4149
 30
0.0
 10
14.5505
 20
25.4149
 30
0.0
 10
14.6622
 20
24.8826
 30
0.0
 10
14.6622
 20
24.8826
 30
0.0
 10
14.6622
 20
24.8826
 30
0.0
 10
14.6622
 20
24.8826
 30
0.0
 10
14.8067
 20
24.3635
 30
0.0
 10
14.8067
 20
24.3635
 30
0.0
 10
14.8067
 20
24.3635
 30
0.0
 10
14.8067
 20
24.3635
 30
0.0
 10
15.0038
 20
23.8642
 30
0.0
 10
15.0038
 20
23.8642
 30
0.0
 10
15.0038
 20
23.8642
 30
0.0
 10
15.0038
 20
23.8642
 30
0.0
 10
15.2338
 20
23.378
 30
0.0
 10
15.2338
 20
23.378
 30
0.0
 10
15.2338
 20
23.378
 30
0.0
 10
15.2338
 20
23.378
 30
0.0
 10
15.5098
 20
22.9312
 30
0.0
 10
15.5098
 20
22.9312
 30
0.0
 10
15.5098
 20
22.9312
 30
0.0
 10
15.5098
 20
22.9312
 30
0.0
 10
15.8317
 20
22.5041
 30
0.0
 10
15.8317
 20
22.5041
 30
0.0
 10
15.8317
 20
22.5041
 30
0.0
 10
15.8317
 20
22.5041
 30
0.0
 10
16.1931
 20
22.123
 30
0.0
 10
16.1931
 20
22.123
 30
0.0
 10
16.1931
 20
22.123
 30
0.0
 10
16.1931
 20
22.123
 30
0.0
 10
16.6004
 20
21.7813
 30
0.0
 10
16.6004
 20
21.7813
 30
0.0
 10
16.6004
 20
21.7813
 30
0.0
 10
16.6004
 20
21.7813
 30
0.0
 10
17.0538
 20
21.4791
 30
0.0
 10
17.0538
 20
21.4791
 30
0.0
 10
17.0538
 20
21.4791
 30
0.0
 10
17.0538
 20
21.4791
 30
0.0
 10
17.5466
 20
21.236
 30
0.0
 10
17.5466
 20
21.236
 30
0.0
  0
SPLINE
  5
74
330
1F
100
AcDbEntity
  8
Layer 1
370
     5
100
AcDbSpline
210
0.0
220
0.0
230
1.0
 70
    11
 71
     3
 72
   368
 73
   364
 74
     0
 42
0.000000001
 43
0.0000000001
 40
0.0
 40
0.0
 40
0.0
 40
0.0
 40
0.0108695652173913
 40
0.0108695652173913
 40
0.0108695652173913
 40
0.0108695752173913
 40
0.0217391304347826
 40
0.0217391304347826
 40
0.0217391304347826
 40
0.0217391404347826
 40
0.0326086956521739
 40
0.0326086956521739
 40
0.0326086956521739
 40
0.0326087056521739
 40
0.0434782608695652
 40
0.0434782608695652
 40
0.0434782608695652
 40
0.0434782708695652
 40
0.0543478260869565
 40
0.0543478260869565
 40
0.0543478260869565
 40
0.0543478360869565
 40
0.0652173913043478
 40
0.0652173913043478
 40
0.0652173913043478
 40
0.0652174013043478
 40
0.0760869565217391
 40
0.0760869565217391
 40
0.0760869565217391
 40
0.0760869665217391
 40
0.0869565217391304
 40
0.0869565217391304
 40
0.0869565217391304
 40
0.0869565317391304
 40
0.0978260869565217
 40
0.0978260869565217
 40
0.0978260869565217
 40
0.0978260969565217
 40
0.108695652173913
 40
0.108695652173913
 40
0.108695652173913
 40
0.108695662173913
 40
0.1195652173913044
 40
0.1195652173913044
 40
0.1195652173913044
 40
0.1195652273913044
 40
0.1304347826086956
 40
0.1304347826086956
 40
0.1304347826086956
 40
0.1304347926086956
 40
0.1413043478260869
 40
0.1413043478260869
 40
0.1413043478260869
 40
0.1413043578260869
 40
0.1521739130434783
 40
0.1521739130434783
 40
0.1521739130434783
 40
0.1521739230434783
 40
0.1630434782608696
 40
0.1630434782608696
 40
0.1630434782608696
 40
0.1630434882608696
 40
0.1739130434782609
 40
0.1739130434782609
 40
0.1739130434782609
 40
0.1739130534782609
 40
0.1847826086956522
 40
0.1847826086956522
 40
0.1847826086956522
 40
0.1847826186956522
 40
0.1956521739130435
 40
0.1956521739130435
 40
0.1956521739130435
 40
0.1956521839130435
 40
0.2065217391304348
 40
0.2065217391304348
 40
0.2065217391304348
 40
0.2065217491304348
 40
0.2173913043478261
 40
0.2173913043478261
 40
0.2173913043478261
 40
0.2173913143478261
 40
0.2282608695652174
 40
0.2282608695652174
 40
0.2282608695652174
 40
0.2282608795652174
 40
0.2391304347826087
 40
0.2391304347826087
 40
0.2391304347826087
 40
0.2391304447826087
 40
0.25
 40
0.25
 40
0.25
 40
0.25000001
 40
0.2608695652173913
 40
0.2608695652173913
 40
0.2608695652173913
 40
0.2608695752173913
 40
0.2717391304347826
 40
0.2717391304347826
 40
0.2717391304347826
 40
0.2717391404347826
 40
0.2826086956521739
 40
0.2826086956521739
 40
0.2826086956521739
 40
0.2826087056521739
 40
0.2934782608695652
 40
0.2934782608695652
 40
0.2934782608695652
 40
0.2934782708695652
 40
0.3043478260869565
 40
0.3043478260869565
 40
0.3043478260869565
 40
0.3043478360869565
 40
0.3152173913043478
 40
0.3152173913043478
 40
0.3152173913043478
 40
0.3152174013043478
 40
0.3260869565217391
 40
0.3260869565217391
 40
0.3260869565217391
 40
0.3260869665217391
 40
0.3369565217391304
 40
0.3369565217391304
 40
0.3369565217391304
 40
0.3369565317391304
 40
0.3478260869565217
 40
0.3478260869565217
 40
0.3478260869565217
 40
0.3478260969565217
 40
0.358695652173913
 40
0.358695652173913
 40
0.358695652173913
 40
0.358695662173913
 40
0.3695652173913043
 40
0.3695652173913043
 40
0.3695652173913043
 40
0.3695652273913043
 40
0.3804347826086957
 40
0.3804347826086957
 40
0.3804347826086957
 40
0.3804347926086957
 40
0.391304347826087
 40
0.391304347826087
 40
0.391304347826087
 40
0.391304357826087
 40
0.4021739130434784
 40
0.4021739130434784
 40
0.4021739130434784
 40
0.4021739230434784
 40
0.4130434782608697
 40
0.4130434782608697
 40
0.4130434782608697
 40
0.4130434882608697
 40
0.423913043478261
 40
0.423913043478261
 40
0.423913043478261
 40
0.4239130534782609
 40
0.4347826086956523
 40
0.4347826086956523
 40
0.4347826086956523
 40
0.4347826186956522
 40
0.4456521739130436
 40
0.4456521739130436
 40
0.4456521739130436
 40
0.4456521839130435
 40
0.4565217391304348
 40
0.4565217391304348
 40
0.4565217391304348
 40
0.4565217491304348
 40
0.4673913043478261
 40
0.4673913043478261
 40
0.4673913043478261
 40
0.4673913143478261
 40
0.4782608695652174
 40
0.4782608695652174
 40
0.4782608695652174
 40
0.4782608795652175
 40
0.4891304347826087
 40
0.4891304347826087
 40
0.4891304347826087
 40
0.4891304447826088
 40
0.5
 40
0.5
 40
0.5
 40
0.5000000100000001
 40
0.5108695652173914
 40
0.5108695652173914
 40
0.5108695652173914
 40
0.5108695752173915
 40
0.5217391304347827
 40
0.5217391304347827
 40
0.5217391304347827
 40
0.5217391404347827
 40
0.532608695652174
 40
0.532608695652174
 40
0.532608695652174
 40
0.532608705652174
 40
0.5434782608695653
 40
0.5434782608695653
 40
0.5434782608695653
 40
0.5434782708695653
 40
0.5543478260869566
 40
0.5543478260869566
 40
0.5543478260869566
 40
0.5543478360869566
 40
0.5652173913043478
 40
0.5652173913043478
 40
0.5652173913043478
 40
0.5652174013043478
 40
0.5760869565217392
 40
0.5760869565217392
 40
0.5760869565217392
 40
0.5760869665217392
 40
0.5869565217391305
 40
0.5869565217391305
 40
0.5869565217391305
 40
0.5869565317391306
 40
0.5978260869565217
 40
0.5978260869565217
 40
0.5978260869565217
 40
0.5978260969565218
 40
0.6086956521739131
 40
0.6086956521739131
 40
0.6086956521739131
 40
0.6086956621739131
 40
0.6195652173913043
 40
0.6195652173913043
 40
0.6195652173913043
 40
0.6195652273913045
 40
0.6304347826086957
 40
0.6304347826086957
 40
0.6304347826086957
 40
0.6304347926086958
 40
0.641304347826087
 40
0.641304347826087
 40
0.641304347826087
 40
0.641304357826087
 40
0.6521739130434784
 40
0.6521739130434784
 40
0.6521739130434784
 40
0.6521739230434784
 40
0.6630434782608696
 40
0.6630434782608696
 40
0.6630434782608696
 40
0.6630434882608696
 40
0.6739130434782609
 40
0.6739130434782609
 40
0.6739130434782609
 40
0.6739130534782609
 40
0.6847826086956523
 40
0.6847826086956523
 40
0.6847826086956523
 40
0.6847826186956523
 40
0.6956521739130435
 40
0.6956521739130435
 40
0.6956521739130435
 40
0.6956521839130435
 40
0.7065217391304348
 40
0.7065217391304348
 40
0.7065217391304348
 40
0.7065217491304349
 40
0.717391304347826
 40
0.717391304347826
 40
0.717391304347826
 40
0.7173913143478261
 40
0.7282608695652174
 40
0.7282608695652174
 40
0.7282608695652174
 40
0.7282608795652175
 40
0.7391304347826086
 40
0.7391304347826086
 40
0.7391304347826086
 40
0.7391304447826088
 40
0.75
 40
0.75
 40
0.75
 40
0.7500000100000001
 40
0.7608695652173914
 40
0.7608695652173914
 40
0.7608695652173914
 40
0.7608695752173915
 40
0.7717391304347827
 40
0.7717391304347827
 40
0.7717391304347827
 40
0.7717391404347827
 40
0.7826086956521741
 40
0.7826086956521741
 40
0.7826086956521741
 40
0.7826087056521742
 40
0.7934782608695653
 40
0.7934782608695653
 40
0.7934782608695653
 40
0.7934782708695653
 40
0.8043478260869566
 40
0.8043478260869566
 40
0.8043478260869566
 40
0.8043478360869565
 40
0.8152173913043478
 40
0.8152173913043478
 40
0.8152173913043478
 40
0.8152174013043477
 40
0.826086956521739
 40
0.826086956521739
 40
0.826086956521739
 40
0.8260869665217391
 40
0.8369565217391304
 40
0.8369565217391304
 40
0.8369565217391304
 40
0.8369565317391305
 40
0.8478260869565216
 40
0.8478260869565216
 40
0.8478260869565216
 40
0.8478260969565218
 40
0.858695652173913
 40
0.858695652173913
 40
0.858695652173913
 40
0.8586956621739131
 40
0.8695652173913043
 40
0.8695652173913043
 40
0.8695652173913043
 40
0.8695652273913044
 40
0.8804347826086956
 40
0.8804347826086956
 40
0.8804347826086956
 40
0.8804347926086958
 40
0.8913043478260869
 40
0.8913043478260869
 40
0.8913043478260869
 40
0.891304357826087
 40
0.9021739130434783
 40
0.9021739130434783
 40
0.9021739130434783
 40
0.9021739230434784
 40
0.9130434782608695
 40
0.9130434782608695
 40
0.9130434782608695
 40
0.9130434882608696
 40
0.9239130434782607
 40
0.9239130434782607
 40
0.9239130434782607
 40
0.9239130534782608
 40
0.9347826086956521
 40
0.9347826086956521
 40
0.9347826086956521
 40
0.9347826186956522
 40
0.9456521739130435
 40
0.9456521739130435
 40
0.9456521739130435
 40
0.9456521839130436
 40
0.9565217391304347
 40
0.9565217391304347
 40
0.9565217391304347
 40
0.9565217491304348
 40
0.9673913043478259
 40
0.9673913043478259
 40
0.9673913043478259
 40
0.9673913143478259
 40
0.9782608695652173
 40
0.9782608695652173
 40
0.9782608695652173
 40
0.9782608795652175
 40
1.0
 40
1.0
 40
1.0
 40
1.0
 10
15.6215
 20
24.9286
 30
0.0
 10
15.6215
 20
24.9286
 30
0.0
 10
15.6872
 20
25.3032
 30
0.0
 10
15.6872
 20
25.3032
 30
0.0
 10
15.6872
 20
25.3032
 30
0.0
 10
15.6872
 20
25.3032
 30
0.0
 10
15.7923
 20
25.6382
 30
0.0
 10
15.7923
 20
25.6382
 30
0.0
 10
15.7923
 20
25.6382
 30
0.0
 10
15.7923
 20
25.6382
 30
0.0
 10
15.9237
 20
25.9273
 30
0.0
 10
15.9237
 20
25.9273
 30
0.0
 10
15.9237
 20
25.9273
 30
0.0
 10
15.9237
 20
25.9273
 30
0.0
 10
16.088
 20
26.177
 30
0.0
 10
16.088
 20
26.177
 30
0.0
 10
16.088
 20
26.177
 30
0.0
 10
16.088
 20
26.177
 30
0.0
 10
16.2719
 20
26.3873
 30
0.0
 10
16.2719
 20
26.3873
 30
0.0
 10
16.2719
 20
26.3873
 30
0.0
 10
16.2719
 20
26.3873
 30
0.0
 10
16.4822
 20
26.5647
 30
0.0
 10
16.4822
 20
26.5647
 30
0.0
 10
16.4822
 20
26.5647
 30
0.0
 10
16.4822
 20
26.5647
 30
0.0
 10
16.7122
 20
26.7027
 30
0.0
 10
16.7122
 20
26.7027
 30
0.0
 10
16.7122
 20
26.7027
 30
0.0
 10
16.7122
 20
26.7027
 30
0.0
 10
16.9553
 20
26.8078
 30
0.0
 10
16.9553
 20
26.8078
 30
0.0
 10
16.9553
 20
26.8078
 30
0.0
 10
16.9553
 20
26.8078
 30
0.0
 10
17.2181
 20
26.8801
 30
0.0
 10
17.2181
 20
26.8801
 30
0.0
 10
17.2181
 20
26.8801
 30
0.0
 10
17.2181
 20
26.8801
 30
0.0
 10
17.4875
 20
26.9195
 30
0.0
 10
17.4875
 20
26.9195
 30
0.0
 10
17.4875
 20
26.9195
 30
0.0
 10
17.4875
 20
26.9195
 30
0.0
 10
17.77
 20
26.9326
 30
0.0
 10
17.77
 20
26.9326
 30
0.0
 10
17.77
 20
26.9326
 30
0.0
 10
17.77
 20
26.9326
 30
0.0
 10
18.0526
 20
26.9129
 30
0.0
 10
18.0526
 20
26.9129
 30
0.0
 10
18.0526
 20
26.9129
 30
0.0
 10
18.0526
 20
26.9129
 30
0.0
 10
18.3416
 20
26.8669
 30
0.0
 10
18.3416
 20
26.8669
 30
0.0
 10
18.3416
 20
26.8669
 30
0.0
 10
18.3416
 20
26.8669
 30
0.0
 10
18.6242
 20
26.7947
 30
0.0
 10
18.6242
 20
26.7947
 30
0.0
 10
18.6242
 20
26.7947
 30
0.0
 10
18.6242
 20
26.7947
 30
0.0
 10
18.9067
 20
26.6961
 30
0.0
 10
18.9067
 20
26.6961
 30
0.0
 10
18.9067
 20
26.6961
 30
0.0
 10
18.9067
 20
26.6961
 30
0.0
 10
19.1827
 20
26.5778
 30
0.0
 10
19.1827
 20
26.5778
 30
0.0
 10
19.1827
 20
26.5778
 30
0.0
 10
19.1827
 20
26.5778
 30
0.0
 10
19.4521
 20
26.4333
 30
0.0
 10
19.4521
 20
26.4333
 30
0.0
 10
19.4521
 20
26.4333
 30
0.0
 10
19.4521
 20
26.4333
 30
0.0
 10
19.7018
 20
26.2756
 30
0.0
 10
19.7018
 20
26.2756
 30
0.0
 10
19.7018
 20
26.2756
 30
0.0
 10
19.7018
 20
26.2756
 30
0.0
 10
19.9449
 20
26.0916
 30
0.0
 10
19.9449
 20
26.0916
 30
0.0
 10
19.9449
 20
26.0916
 30
0.0
 10
19.9449
 20
26.0916
 30
0.0
 10
20.1617
 20
25.8945
 30
0.0
 10
20.1617
 20
25.8945
 30
0.0
 10
20.1617
 20
25.8945
 30
0.0
 10
20.1617
 20
25.8945
 30
0.0
 10
20.3588
 20
25.6842
 30
0.0
 10
20.3588
 20
25.6842
 30
0.0
 10
20.3588
 20
25.6842
 30
0.0
 10
20.3588
 20
25.6842
 30
0.0
 10
20.5362
 20
25.4543
 30
0.0
 10
20.5362
 20
25.4543
 30
0.0
 10
20.5362
 20
25.4543
 30
0.0
 10
20.5362
 20
25.4543
 30
0.0
 10
20.6874
 20
25.2112
 30
0.0
 10
20.6874
 20
25.2112
 30
0.0
 10
20.6874
 20
25.2112
 30
0.0
 10
20.6874
 20
25.2112
 30
0.0
 10
20.8056
 20
24.9615
 30
0.0
 10
20.8056
 20
24.9615
 30
0.0
 10
20.8056
 20
24.9615
 30
0.0
 10
20.8056
 20
24.9615
 30
0.0
 10
20.891
 20
24.6986
 30
0.0
 10
20.891
 20
24.6986
 30
0.0
 10
20.891
 20
24.6986
 30
0.0
 10
20.891
 20
24.6986
 30
0.0
 10
20.937
 20
24.4227
 30
0.0
 10
20.937
 20
24.4227
 30
0.0
 10
20.937
 20
24.4227
 30
0.0
 10
20.937
 20
24.4227
 30
0.0
 10
20.9502
 20
24.1402
 30
0.0
 10
20.9502
 20
24.1402
 30
0.0
 10
20.9502
 20
24.1402
 30
0.0
 10
20.9502
 20
24.1402
 30
0.0
 10
20.9239
 20
23.8576
 30
0.0
 10
20.9239
 20
23.8576
 30
0.0
 10
20.9239
 20
23.8576
 30
0.0
 10
20.9239
 20
23.8576
 30
0.0
 10
20.845
 20
23.5685
 30
0.0
 10
20.845
 20
23.5685
 30
0.0
 10
20.845
 20
23.5685
 30
0.0
 10
20.845
 20
23.5685
 30
0.0
 10
20.7268
 20
23.2728
 30
0.0
 10
20.7268
 20
23.2728
 30
0.0
 10
20.7268
 20
23.2728
 30
0.0
 10
20.7268
 20
23.2728
 30
0.0
 10
20.5494
 20
22.9772
 30
0.0
 10
20.5494
 20
22.9772
 30
0.0
 10
20.5494
 20
22.9772
 30
0.0
 10
20.5494
 20
22.9772
 30
0.0
 10
20.326
 20
22.6815
 30
0.0
 10
20.326
 20
22.6815
 30
0.0
 10
20.326
 20
22.6815
 30
0.0
 10
20.326
 20
22.6815
 30
0.0
 10
20.1617
 20
22.5172
 30
0.0
 10
20.1617
 20
22.5172
 30
0.0
 10
20.1617
 20
22.5172
 30
0.0
 10
20.1617
 20
22.5172
 30
0.0
 10
19.9777
 20
22.3727
 30
0.0
 10
19.9777
 20
22.3727
 30
0.0
 10
19.9777
 20
22.3727
 30
0.0
 10
19.9777
 20
22.3727
 30
0.0
 10
19.774
 20
22.2544
 30
0.0
 10
19.774
 20
22.2544
 30
0.0
 10
19.774
 20
22.2544
 30
0.0
 10
19.774
 20
22.2544
 30
0.0
 10
19.5506
 20
22.1624
 30
0.0
 10
19.5506
 20
22.1624
 30
0.0
 10
19.5506
 20
22.1624
 30
0.0
 10
19.5506
 20
22.1624
 30
0.0
 10
19.07099999999999
 20
22.0442
 30
0.0
 10
19.07099999999999
 20
22.0442
 30
0.0
 10
19.07099999999999
 20
22.0442
 30
0.0
 10
19.07099999999999
 20
22.0442
 30
0.0
 10
18.565
 20
22.0179
 30
0.0
 10
18.565
 20
22.0179
 30
0.0
 10
18.565
 20
22.0179
 30
0.0
 10
18.565
 20
22.0179
 30
0.0
 10
18.3088
 20
22.0442
 30
0.0
 10
18.3088
 20
22.0442
 30
0.0
 10
18.3088
 20
22.0442
 30
0.0
 10
18.3088
 20
22.0442
 30
0.0
 10
18.0526
 20
22.0902
 30
0.0
 10
18.0526
 20
22.0902
 30
0.0
 10
18.0526
 20
22.0902
 30
0.0
 10
18.0526
 20
22.0902
 30
0.0
 10
17.8029
 20
22.1558
 30
0.0
 10
17.8029
 20
22.1558
 30
0.0
 10
17.8029
 20
22.1558
 30
0.0
 10
17.8029
 20
22.1558
 30
0.0
 10
17.5663
 20
22.2478
 30
0.0
 10
17.5663
 20
22.2478
 30
0.0
 10
17.5663
 20
22.2478
 30
0.0
 10
17.5663
 20
22.2478
 30
0.0
 10
17.3364
 20
22.3661
 30
0.0
 10
17.3364
 20
22.3661
 30
0.0
 10
17.3364
 20
22.3661
 30
0.0
 10
17.3364
 20
22.3661
 30
0.0
 10
17.1195
 20
22.5041
 30
0.0
 10
17.1195
 20
22.5041
 30
0.0
 10
17.1195
 20
22.5041
 30
0.0
 10
17.1195
 20
22.5041
 30
0.0
 10
16.9224
 20
22.6618
 30
0.0
 10
16.9224
 20
22.6618
 30
0.0
 10
16.9224
 20
22.6618
 30
0.0
 10
16.9224
 20
22.6618
 30
0.0
 10
16.745
 20
22.8457
 30
0.0
 10
16.745
 20
22.8457
 30
0.0
 10
16.745
 20
22.8457
 30
0.0
 10
16.745
 20
22.8457
 30
0.0
 10
16.6136
 20
23.0363
 30
0.0
 10
16.6136
 20
23.0363
 30
0.0
 10
16.6136
 20
23.0363
 30
0.0
 10
16.6136
 20
23.0363
 30
0.0
 10
16.5676
 20
23.1874
 30
0.0
 10
16.5676
 20
23.1874
 30
0.0
 10
16.5676
 20
23.1874
 30
0.0
 10
16.5676
 20
23.1874
 30
0.0
 10
16.6004
 20
23.2991
 30
0.0
 10
16.6004
 20
23.2991
 30
0.0
 10
16.6004
 20
23.2991
 30
0.0
 10
16.6004
 20
23.2991
 30
0.0
 10
16.699
 20
23.3714
 30
0.0
 10
16.699
 20
23.3714
 30
0.0
 10
16.699
 20
23.3714
 30
0.0
 10
16.699
 20
23.3714
 30
0.0
 10
16.8567
 20
23.4042
 30
0.0
 10
16.8567
 20
23.4042
 30
0.0
 10
16.8567
 20
23.4042
 30
0.0
 10
16.8567
 20
23.4042
 30
0.0
 10
17.0604
 20
23.3911
 30
0.0
 10
17.0604
 20
23.3911
 30
0.0
 10
17.0604
 20
23.3911
 30
0.0
 10
17.0604
 20
23.3911
 30
0.0
 10
17.3035
 20
23.332
 30
0.0
 10
17.3035
 20
23.332
 30
0.0
 10
17.3035
 20
23.332
 30
0.0
 10
17.3035
 20
23.332
 30
0.0
 10
17.5795
 20
23.2269
 30
0.0
 10
17.5795
 20
23.2269
 30
0.0
 10
17.5795
 20
23.2269
 30
0.0
 10
17.5795
 20
23.2269
 30
0.0
 10
17.862
 20
23.1283
 30
0.0
 10
17.862
 20
23.1283
 30
0.0
 10
17.862
 20
23.1283
 30
0.0
 10
17.862
 20
23.1283
 30
0.0
 10
17.9934
 20
23.1086
 30
0.0
 10
17.9934
 20
23.1086
 30
0.0
 10
17.9934
 20
23.1086
 30
0.0
 10
17.9934
 20
23.1086
 30
0.0
 10
18.1314
 20
23.0954
 30
0.0
 10
18.1314
 20
23.0954
 30
0.0
 10
18.1314
 20
23.0954
 30
0.0
 10
18.1314
 20
23.0954
 30
0.0
 10
18.3877
 20
23.1152
 30
0.0
 10
18.3877
 20
23.1152
 30
0.0
 10
18.3877
 20
23.1152
 30
0.0
 10
18.3877
 20
23.1152
 30
0.0
 10
18.6176
 20
23.1874
 30
0.0
 10
18.6176
 20
23.1874
 30
0.0
 10
18.6176
 20
23.1874
 30
0.0
 10
18.6176
 20
23.1874
 30
0.0
 10
18.8345
 20
23.3057
 30
0.0
 10
18.8345
 20
23.3057
 30
0.0
 10
18.8345
 20
23.3057
 30
0.0
 10
18.8345
 20
23.3057
 30
0.0
 10
19.0184
 20
23.4568
 30
0.0
 10
19.0184
 20
23.4568
 30
0.0
 10
19.0184
 20
23.4568
 30
0.0
 10
19.0184
 20
23.4568
 30
0.0
 10
19.1696
 20
23.6342
 30
0.0
 10
19.1696
 20
23.6342
 30
0.0
 10
19.1696
 20
23.6342
 30
0.0
 10
19.1696
 20
23.6342
 30
0.0
 10
19.2878
 20
23.8379
 30
0.0
 10
19.2878
 20
23.8379
 30
0.0
 10
19.2878
 20
23.8379
 30
0.0
 10
19.2878
 20
23.8379
 30
0.0
 10
19.3601
 20
24.0547
 30
0.0
 10
19.3601
 20
24.0547
 30
0.0
 10
19.3601
 20
24.0547
 30
0.0
 10
19.3601
 20
24.0547
 30
0.0
 10
19.393
 20
24.2847
 30
0.0
 10
19.393
 20
24.2847
 30
0.0
 10
19.393
 20
24.2847
 30
0.0
 10
19.393
 20
24.2847
 30
0.0
 10
19.3798
 20
24.5147
 30
0.0
 10
19.3798
 20
24.5147
 30
0.0
 10
19.3798
 20
24.5147
 30
0.0
 10
19.3798
 20
24.5147
 30
0.0
 10
19.3075
 20
24.7447
 30
0.0
 10
19.3075
 20
24.7447
 30
0.0
 10
19.3075
 20
24.7447
 30
0.0
 10
19.3075
 20
24.7447
 30
0.0
 10
19.1761
 20
24.9549
 30
0.0
 10
19.1761
 20
24.9549
 30
0.0
 10
19.1761
 20
24.9549
 30
0.0
 10
19.1761
 20
24.9549
 30
0.0
 10
18.9856
 20
25.1586
 30
0.0
 10
18.9856
 20
25.1586
 30
0.0
 10
18.9856
 20
25.1586
 30
0.0
 10
18.9856
 20
25.1586
 30
0.0
 10
18.7359
 20
25.3294
 30
0.0
 10
18.7359
 20
25.3294
 30
0.0
 10
18.7359
 20
25.3294
 30
0.0
 10
18.7359
 20
25.3294
 30
0.0
 10
18.4074
 20
25.474
 30
0.0
 10
18.4074
 20
25.474
 30
0.0
 10
18.4074
 20
25.474
 30
0.0
 10
18.4074
 20
25.474
 30
0.0
 10
18.1249
 20
25.52
 30
0.0
 10
18.1249
 20
25.52
 30
0.0
 10
18.1249
 20
25.52
 30
0.0
 10
18.1249
 20
25.52
 30
0.0
 10
17.8817
 20
25.5266
 30
0.0
 10
17.8817
 20
25.5266
 30
0.0
 10
17.8817
 20
25.5266
 30
0.0
 10
17.8817
 20
25.5266
 30
0.0
 10
17.6715
 20
25.5134
 30
0.0
 10
17.6715
 20
25.5134
 30
0.0
 10
17.6715
 20
25.5134
 30
0.0
 10
17.6715
 20
25.5134
 30
0.0
 10
17.4941
 20
25.4674
 30
0.0
 10
17.4941
 20
25.4674
 30
0.0
 10
17.4941
 20
25.4674
 30
0.0
 10
17.4941
 20
25.4674
 30
0.0
 10
17.3429
 20
25.4017
 30
0.0
 10
17.3429
 20
25.4017
 30
0.0
 10
17.3429
 20
25.4017
 30
0.0
 10
17.3429
 20
25.4017
 30
0.0
 10
17.2181
 20
25.3229
 30
0.0
 10
17.2181
 20
25.3229
 30
0.0
 10
17.2181
 20
25.3229
 30
0.0
 10
17.2181
 20
25.3229
 30
0.0
 10
17.0144
 20
25.1257
 30
0.0
 10
17.0144
 20
25.1257
 30
0.0
 10
17.0144
 20
25.1257
 30
0.0
 10
17.0144
 20
25.1257
 30
0.0
 10
16.8633
 20
24.9089
 30
0.0
 10
16.8633
 20
24.9089
 30
0.0
 10
16.8633
 20
24.9089
 30
0.0
 10
16.8633
 20
24.9089
 30
0.0
 10
16.7384
 20
24.7052
 30
0.0
 10
16.7384
 20
24.7052
 30
0.0
 10
16.7384
 20
24.7052
 30
0.0
 10
16.7384
 20
24.7052
 30
0.0
 10
16.607
 20
24.5475
 30
0.0
 10
16.607
 20
24.5475
 30
0.0
 10
16.607
 20
24.5475
 30
0.0
 10
16.607
 20
24.5475
 30
0.0
 10
16.5282
 20
24.495
 30
0.0
 10
16.5282
 20
24.495
 30
0.0
 10
16.5282
 20
24.495
 30
0.0
 10
16.5282
 20
24.495
 30
0.0
 10
16.4362
 20
24.4621
 30
0.0
 10
16.4362
 20
24.4621
 30
0.0
 10
16.4362
 20
24.4621
 30
0.0
 10
16.4362
 20
24.4621
 30
0.0
 10
16.2325
 20
24.4358
 30
0.0
 10
16.2325
 20
24.4358
 30
0.0
 10
16.2325
 20
24.4358
 30
0.0
 10
16.2325
 20
24.4358
 30
0.0
 10
16.0551
 20
24.4358
 30
0.0
 10
16.0551
 20
24.4358
 30
0.0
 10
16.0551
 20
24.4358
 30
0.0
 10
16.0551
 20
24.4358
 30
0.0
 10
15.9106
 20
24.4555
 30
0.0
 10
15.9106
 20
24.4555
 30
0.0
 10
15.9106
 20
24.4555
 30
0.0
 10
15.9106
 20
24.4555
 30
0.0
 10
15.7923
 20
24.495
 30
0.0
 10
15.7923
 20
24.495
 30
0.0
 10
15.7923
 20
24.495
 30
0.0
 10
15.7923
 20
24.495
 30
0.0
 10
15.7069
 20
24.5672
 30
0.0
 10
15.7069
 20
24.5672
 30
0.0
 10
15.7069
 20
24.5672
 30
0.0
 10
15.7069
 20
24.5672
 30
0.0
 10
15.6477
 20
24.6592
 30
0.0
 10
15.6477
 20
24.6592
 30
0.0
 10
15.6477
 20
24.6592
 30
0.0
 10
15.6477
 20
24.6592
 30
0.0
 10
15.6149
 20
24.7841
 30
0.0
 10
15.6149
 20
24.7841
 30
0.0
 10
15.6149
 20
24.7841
 30
0.0
 10
15.6149
 20
24.7841
 30
0.0
 10
15.6215
 20
24.9286
 30
0.0
 10
15.6215
 20
24.9286
 30
0.0
  0
SPLINE
  5
75
330
1F
100
AcDbEntity
  8
Layer 1
370
     5
100
AcDbSpline
210
0.0
220
0.0
230
1.0
 70
    11
 71
     3
 72
   104
 73
   100
 74
     0
 42
0.000000001
 43
0.0000000001
 40
0.0
 40
0.0
 40
0.0
 40
0.0
 40
0.0384615384615385
 40
0.0384615384615385
 40
0.0384615384615385
 40
0.0384615484615385
 40
0.0769230769230769
 40
0.0769230769230769
 40
0.0769230769230769
 40
0.0769230869230769
 40
0.1153846153846154
 40
0.1153846153846154
 40
0.1153846153846154
 40
0.1153846253846154
 40
0.1538461538461539
 40
0.1538461538461539
 40
0.1538461538461539
 40
0.1538461638461539
 40
0.1923076923076923
 40
0.1923076923076923
 40
0.1923076923076923
 40
0.1923077023076923
 40
0.2307692307692308
 40
0.2307692307692308
 40
0.2307692307692308
 40
0.2307692407692308
 40
0.2692307692307692
 40
0.2692307692307692
 40
0.2692307692307692
 40
0.2692307792307692
 40
0.3076923076923077
 40
0.3076923076923077
 40
0.3076923076923077
 40
0.3076923176923077
 40
0.3461538461538461
 40
0.3461538461538461
 40
0.3461538461538461
 40
0.3461538561538461
 40
0.3846153846153846
 40
0.3846153846153846
 40
0.3846153846153846
 40
0.3846153946153846
 40
0.4230769230769231
 40
0.4230769230769231
 40
0.4230769230769231
 40
0.4230769330769232
 40
0.4615384615384616
 40
0.4615384615384616
 40
0.4615384615384616
 40
0.4615384715384617
 40
0.5
 40
0.5
 40
0.5
 40
0.5000000100000001
 40
0.5384615384615385
 40
0.5384615384615385
 40
0.5384615384615385
 40
0.5384615484615385
 40
0.5769230769230769
 40
0.5769230769230769
 40
0.5769230769230769
 40
0.576923086923077
 40
0.6153846153846155
 40
0.6153846153846155
 40
0.6153846153846155
 40
0.6153846253846155
 40
0.6538461538461539
 40
0.6538461538461539
 40
0.6538461538461539
 40
0.653846163846154
 40
0.6923076923076924
 40
0.6923076923076924
 40
0.6923076923076924
 40
0.6923077023076924
 40
0.7307692307692308
 40
0.7307692307692308
 40
0.7307692307692308
 40
0.7307692407692308
 40
0.7692307692307693
 40
0.7692307692307693
 40
0.7692307692307693
 40
0.7692307792307693
 40
0.8076923076923076
 40
0.8076923076923076
 40
0.8076923076923076
 40
0.8076923176923077
 40
0.8461538461538461
 40
0.8461538461538461
 40
0.8461538461538461
 40
0.8461538561538461
 40
0.8846153846153846
 40
0.8846153846153846
 40
0.8846153846153846
 40
0.8846153946153846
 40
0.9230769230769231
 40
0.9230769230769231
 40
0.9230769230769231
 40
0.9230769330769232
 40
1.0
 40
1.0
 40
1.0
 40
1.0
 10
17.5269
 20
24.0022
 30
0.0
 10
17.5269
 20
24.0022
 30
0.0
 10
17.4875
 20
24.1204
 30
0.0
 10
17.4875
 20
24.1204
 30
0.0
 10
17.4875
 20
24.1204
 30
0.0
 10
17.4875
 20
24.1204
 30
0.0
 10
17.4809
 20
24.2321
 30
0.0
 10
17.4809
 20
24.2321
 30
0.0
 10
17.4809
 20
24.2321
 30
0.0
 10
17.4809
 20
24.2321
 30
0.0
 10
17.5072
 20
24.3438
 30
0.0
 10
17.5072
 20
24.3438
 30
0.0
 10
17.5072
 20
24.3438
 30
0.0
 10
17.5072
 20
24.3438
 30
0.0
 10
17.5532
 20
24.4555
 30
0.0
 10
17.5532
 20
24.4555
 30
0.0
 10
17.5532
 20
24.4555
 30
0.0
 10
17.5532
 20
24.4555
 30
0.0
 10
17.632
 20
24.5541
 30
0.0
 10
17.632
 20
24.5541
 30
0.0
 10
17.632
 20
24.5541
 30
0.0
 10
17.632
 20
24.5541
 30
0.0
 10
17.724
 20
24.6461
 30
0.0
 10
17.724
 20
24.6461
 30
0.0
 10
17.724
 20
24.6461
 30
0.0
 10
17.724
 20
24.6461
 30
0.0
 10
17.954
 20
24.8038
 30
0.0
 10
17.954
 20
24.8038
 30
0.0
 10
17.954
 20
24.8038
 30
0.0
 10
17.954
 20
24.8038
 30
0.0
 10
18.2102
 20
24.8958
 30
0.0
 10
18.2102
 20
24.8958
 30
0.0
 10
18.2102
 20
24.8958
 30
0.0
 10
18.2102
 20
24.8958
 30
0.0
 10
18.4665
 20
24.922
 30
0.0
 10
18.4665
 20
24.922
 30
0.0
 10
18.4665
 20
24.922
 30
0.0
 10
18.4665
 20
24.922
 30
0.0
 10
18.5848
 20
24.9023
 30
0.0
 10
18.5848
 20
24.9023
 30
0.0
 10
18.5848
 20
24.9023
 30
0.0
 10
18.5848
 20
24.9023
 30
0.0
 10
18.6899
 20
24.8564
 30
0.0
 10
18.6899
 20
24.8564
 30
0.0
 10
18.6899
 20
24.8564
 30
0.0
 10
18.6899
 20
24.8564
 30
0.0
 10
18.7819
 20
24.7841
 30
0.0
 10
18.7819
 20
24.7841
 30
0.0
 10
18.7819
 20
24.7841
 30
0.0
 10
18.7819
 20
24.7841
 30
0.0
 10
18.8542
 20
24.6855
 30
0.0
 10
18.8542
 20
24.6855
 30
0.0
 10
18.8542
 20
24.6855
 30
0.0
 10
18.8542
 20
24.6855
 30
0.0
 10
18.8936
 20
24.5738
 30
0.0
 10
18.8936
 20
24.5738
 30
0.0
 10
18.8936
 20
24.5738
 30
0.0
 10
18.8936
 20
24.5738
 30
0.0
 10
18.9001
 20
24.4555
 30
0.0
 10
18.9001
 20
24.4555
 30
0.0
 10
18.9001
 20
24.4555
 30
0.0
 10
18.9001
 20
24.4555
 30
0.0
 10
18.8739
 20
24.3438
 30
0.0
 10
18.8739
 20
24.3438
 30
0.0
 10
18.8739
 20
24.3438
 30
0.0
 10
18.8739
 20
24.3438
 30
0.0
 10
18.8279
 20
24.2387
 30
0.0
 10
18.8279
 20
24.2387
 30
0.0
 10
18.8279
 20
24.2387
 30
0.0
 10
18.8279
 20
24.2387
 30
0.0
 10
18.657
 20
24.0416
 30
0.0
 10
18.657
 20
24.0416
 30
0.0
 10
18.657
 20
24.0416
 30
0.0
 10
18.657
 20
24.0416
 30
0.0
 10
18.4271
 20
23.8905
 30
0.0
 10
18.4271
 20
23.8905
 30
0.0
 10
18.4271
 20
23.8905
 30
0.0
 10
18.4271
 20
23.8905
 30
0.0
 10
18.1708
 20
23.7919
 30
0.0
 10
18.1708
 20
23.7919
 30
0.0
 10
18.1708
 20
23.7919
 30
0.0
 10
18.1708
 20
23.7919
 30
0.0
 10
17.9146
 20
23.7656
 30
0.0
 10
17.9146
 20
23.7656
 30
0.0
 10
17.9146
 20
23.7656
 30
0.0
 10
17.9146
 20
23.7656
 30
0.0
 10
17.7963
 20
23.7854
 30
0.0
 10
17.7963
 20
23.7854
 30
0.0
 10
17.7963
 20
23.7854
 30
0.0
 10
17.7963
 20
23.7854
 30
0.0
 10
17.6912
 20
23.8313
 30
0.0
 10
17.6912
 20
23.8313
 30
0.0
 10
17.6912
 20
23.8313
 30
0.0
 10
17.6912
 20
23.8313
 30
0.0
 10
17.5992
 20
23.9036
 30
0.0
 10
17.5992
 20
23.9036
 30
0.0
 10
17.5992
 20
23.9036
 30
0.0
 10
17.5992
 20
23.9036
 30
0.0
 10
17.5269
 20
24.0022
 30
0.0
 10
17.5269
 20
24.0022
 30
0.0
  0
SPLINE
  5
76
330
1F
100
AcDbEntity
  8
Layer 1
370
     5
100
AcDbSpline
210
0.0
220
0.0
230
1.0
 70
    11
 71
     3
 72
   176
 73
   172
 74
     0
 42
0.000000001
 43
0.0000000001
 40
0.0
 40
0.0
 40
0.0
 40
0.0
 40
0.0227272727272727
 40
0.0227272727272727
 40
0.0227272727272727
 40
0.0227272827272727
 40
0.0454545454545455
 40
0.0454545454545455
 40
0.0454545454545455
 40
0.0454545554545455
 40
0.0681818181818182
 40
0.0681818181818182
 40
0.0681818181818182
 40
0.0681818281818182
 40
0.0909090909090909
 40
0.0909090909090909
 40
0.0909090909090909
 40
0.0909091009090909
 40
0.1136363636363636
 40
0.1136363636363636
 40
0.1136363636363636
 40
0.1136363736363636
 40
0.1363636363636364
 40
0.1363636363636364
 40
0.1363636363636364
 40
0.1363636463636364
 40
0.1590909090909091
 40
0.1590909090909091
 40
0.1590909090909091
 40
0.1590909190909091
 40
0.1818181818181818
 40
0.1818181818181818
 40
0.1818181818181818
 40
0.1818181918181818
 40
0.2045454545454546
 40
0.2045454545454546
 40
0.2045454545454546
 40
0.2045454645454546
 40
0.2272727272727273
 40
0.2272727272727273
 40
0.2272727272727273
 40
0.2272727372727273
 40
0.25
 40
0.25
 40
0.25
 40
0.25000001
 40
0.2727272727272727
 40
0.2727272727272727
 40
0.2727272727272727
 40
0.2727272827272727
 40
0.2954545454545455
 40
0.2954545454545455
 40
0.2954545454545455
 40
0.2954545554545455
 40
0.3181818181818182
 40
0.3181818181818182
 40
0.3181818181818182
 40
0.3181818281818182
 40
0.3409090909090909
 40
0.3409090909090909
 40
0.3409090909090909
 40
0.3409091009090909
 40
0.3636363636363636
 40
0.3636363636363636
 40
0.3636363636363636
 40
0.3636363736363636
 40
0.3863636363636364
 40
0.3863636363636364
 40
0.3863636363636364
 40
0.3863636463636364
 40
0.4090909090909091
 40
0.4090909090909091
 40
0.4090909090909091
 40
0.4090909190909091
 40
0.4318181818181819
 40
0.4318181818181819
 40
0.4318181818181819
 40
0.4318181918181818
 40
0.4545454545454545
 40
0.4545454545454545
 40
0.4545454545454545
 40
0.4545454645454545
 40
0.4772727272727274
 40
0.4772727272727274
 40
0.4772727272727274
 40
0.4772727372727273
 40
0.5
 40
0.5
 40
0.5
 40
0.5000000100000001
 40
0.5227272727272727
 40
0.5227272727272727
 40
0.5227272727272727
 40
0.5227272827272728
 40
0.5454545454545455
 40
0.5454545454545455
 40
0.5454545454545455
 40
0.5454545554545455
 40
0.5681818181818183
 40
0.5681818181818183
 40
0.5681818181818183
 40
0.5681818281818183
 40
0.590909090909091
 40
0.590909090909091
 40
0.590909090909091
 40
0.590909100909091
 40
0.6136363636363637
 40
0.6136363636363637
 40
0.6136363636363637
 40
0.6136363736363637
 40
0.6363636363636364
 40
0.6363636363636364
 40
0.6363636363636364
 40
0.6363636463636365
 40
0.6590909090909091
 40
0.6590909090909091
 40
0.6590909090909091
 40
0.6590909190909091
 40
0.6818181818181818
 40
0.6818181818181818
 40
0.6818181818181818
 40
0.6818181918181818
 40
0.7045454545454546
 40
0.7045454545454546
 40
0.7045454545454546
 40
0.7045454645454547
 40
0.7272727272727274
 40
0.7272727272727274
 40
0.7272727272727274
 40
0.7272727372727274
 40
0.75
 40
0.75
 40
0.75
 40
0.7500000100000001
 40
0.7727272727272727
 40
0.7727272727272727
 40
0.7727272727272727
 40
0.7727272827272728
 40
0.7954545454545455
 40
0.7954545454545455
 40
0.7954545454545455
 40
0.7954545554545455
 40
0.8181818181818181
 40
0.8181818181818181
 40
0.8181818181818181
 40
0.8181818281818182
 40
0.840909090909091
 40
0.840909090909091
 40
0.840909090909091
 40
0.8409091009090909
 40
0.8636363636363636
 40
0.8636363636363636
 40
0.8636363636363636
 40
0.8636363736363637
 40
0.8863636363636363
 40
0.8863636363636363
 40
0.8863636363636363
 40
0.8863636463636364
 40
0.9090909090909091
 40
0.9090909090909091
 40
0.9090909090909091
 40
0.9090909190909092
 40
0.9318181818181818
 40
0.9318181818181818
 40
0.9318181818181818
 40
0.9318181918181817
 40
0.9545454545454546
 40
0.9545454545454546
 40
0.9545454545454546
 40
0.9545454645454546
 40
1.0
 40
1.0
 40
1.0
 40
1.0
 10
12.0339
 20
20.5986
 30
0.0
 10
12.0339
 20
20.5986
 30
0.0
 10
11.7843
 20
20.3358
 30
0.0
 10
11.7843
 20
20.3358
 30
0.0
 10
11.7843
 20
20.3358
 30
0.0
 10
11.7843
 20
20.3358
 30
0.0
 10
11.5609
 20
20.0664
 30
0.0
 10
11.5609
 20
20.0664
 30
0.0
 10
11.5609
 20
20.0664
 30
0.0
 10
11.5609
 20
20.0664
 30
0.0
 10
11.3572
 20
19.7905
 30
0.0
 10
11.3572
 20
19.7905
 30
0.0
 10
11.3572
 20
19.7905
 30
0.0
 10
11.3572
 20
19.7905
 30
0.0
 10
11.1797
 20
19.5145
 30
0.0
 10
11.1797
 20
19.5145
 30
0.0
 10
11.1797
 20
19.5145
 30
0.0
 10
11.1797
 20
19.5145
 30
0.0
 10
10.8644
 20
18.9626
 30
0.0
 10
10.8644
 20
18.9626
 30
0.0
 10
10.8644
 20
18.9626
 30
0.0
 10
10.8644
 20
18.9626
 30
0.0
 10
10.6081
 20
18.3975
 30
0.0
 10
10.6081
 20
18.3975
 30
0.0
 10
10.6081
 20
18.3975
 30
0.0
 10
10.6081
 20
18.3975
 30
0.0
 10
10.3913
 20
17.8324
 30
0.0
 10
10.3913
 20
17.8324
 30
0.0
 10
10.3913
 20
17.8324
 30
0.0
 10
10.3913
 20
17.8324
 30
0.0
 10
10.2073
 20
17.2739
 30
0.0
 10
10.2073
 20
17.2739
 30
0.0
 10
10.2073
 20
17.2739
 30
0.0
 10
10.2073
 20
17.2739
 30
0.0
 10
9.846
 20
16.1569
 30
0.0
 10
9.846
 20
16.1569
 30
0.0
 10
9.846
 20
16.1569
 30
0.0
 10
9.846
 20
16.1569
 30
0.0
 10
9.648799999999999
 20
15.6116
 30
0.0
 10
9.648799999999999
 20
15.6116
 30
0.0
 10
9.648799999999999
 20
15.6116
 30
0.0
 10
9.648799999999999
 20
15.6116
 30
0.0
 10
9.4123
 20
15.0794
 30
0.0
 10
9.4123
 20
15.0794
 30
0.0
 10
9.4123
 20
15.0794
 30
0.0
 10
9.4123
 20
15.0794
 30
0.0
 10
9.129799999999999
 20
14.5603
 30
0.0
 10
9.129799999999999
 20
14.5603
 30
0.0
 10
9.129799999999999
 20
14.5603
 30
0.0
 10
9.129799999999999
 20
14.5603
 30
0.0
 10
8.7749
 20
14.0609
 30
0.0
 10
8.7749
 20
14.0609
 30
0.0
 10
8.7749
 20
14.0609
 30
0.0
 10
8.7749
 20
14.0609
 30
0.0
 10
8.347899999999999
 20
13.5813
 30
0.0
 10
8.347899999999999
 20
13.5813
 30
0.0
 10
8.347899999999999
 20
13.5813
 30
0.0
 10
8.347899999999999
 20
13.5813
 30
0.0
 10
8.0982
 20
13.3513
 30
0.0
 10
8.0982
 20
13.3513
 30
0.0
 10
8.0982
 20
13.3513
 30
0.0
 10
8.0982
 20
13.3513
 30
0.0
 10
7.815599999999999
 20
13.1279
 30
0.0
 10
7.815599999999999
 20
13.1279
 30
0.0
 10
7.815599999999999
 20
13.1279
 30
0.0
 10
7.815599999999999
 20
13.1279
 30
0.0
 10
7.513399999999999
 20
12.9111
 30
0.0
 10
7.513399999999999
 20
12.9111
 30
0.0
 10
7.513399999999999
 20
12.9111
 30
0.0
 10
7.513399999999999
 20
12.9111
 30
0.0
 10
7.1783
 20
12.7009
 30
0.0
 10
7.1783
 20
12.7009
 30
0.0
 10
7.1783
 20
12.7009
 30
0.0
 10
7.1783
 20
12.7009
 30
0.0
 10
6.4161
 20
12.3066
 30
0.0
 10
6.4161
 20
12.3066
 30
0.0
 10
6.4161
 20
12.3066
 30
0.0
 10
6.4161
 20
12.3066
 30
0.0
 10
6.560699999999999
 20
12.6745
 30
0.0
 10
6.560699999999999
 20
12.6745
 30
0.0
 10
6.560699999999999
 20
12.6745
 30
0.0
 10
6.560699999999999
 20
12.6745
 30
0.0
 10
6.639499999999999
 20
13.0951
 30
0.0
 10
6.639499999999999
 20
13.0951
 30
0.0
 10
6.639499999999999
 20
13.0951
 30
0.0
 10
6.639499999999999
 20
13.0951
 30
0.0
 10
6.6592
 20
13.5616
 30
0.0
 10
6.6592
 20
13.5616
 30
0.0
 10
6.6592
 20
13.5616
 30
0.0
 10
6.6592
 20
13.5616
 30
0.0
 10
6.6527
 20
14.0741
 30
0.0
 10
6.6527
 20
14.0741
 30
0.0
 10
6.6527
 20
14.0741
 30
0.0
 10
6.6527
 20
14.0741
 30
0.0
 10
6.639499999999999
 20
14.6129
 30
0.0
 10
6.639499999999999
 20
14.6129
 30
0.0
 10
6.639499999999999
 20
14.6129
 30
0.0
 10
6.639499999999999
 20
14.6129
 30
0.0
 10
6.639499999999999
 20
15.1779
 30
0.0
 10
6.639499999999999
 20
15.1779
 30
0.0
 10
6.639499999999999
 20
15.1779
 30
0.0
 10
6.639499999999999
 20
15.1779
 30
0.0
 10
6.665799999999999
 20
15.7627
 30
0.0
 10
6.665799999999999
 20
15.7627
 30
0.0
 10
6.665799999999999
 20
15.7627
 30
0.0
 10
6.665799999999999
 20
15.7627
 30
0.0
 10
6.757799999999999
 20
16.3541
 30
0.0
 10
6.757799999999999
 20
16.3541
 30
0.0
 10
6.757799999999999
 20
16.3541
 30
0.0
 10
6.757799999999999
 20
16.3541
 30
0.0
 10
6.830099999999999
 20
16.6498
 30
0.0
 10
6.830099999999999
 20
16.6498
 30
0.0
 10
6.830099999999999
 20
16.6498
 30
0.0
 10
6.830099999999999
 20
16.6498
 30
0.0
 10
6.9221
 20
16.952
 30
0.0
 10
6.9221
 20
16.952
 30
0.0
 10
6.9221
 20
16.952
 30
0.0
 10
6.9221
 20
16.952
 30
0.0
 10
7.0403
 20
17.2477
 30
0.0
 10
7.0403
 20
17.2477
 30
0.0
 10
7.0403
 20
17.2477
 30
0.0
 10
7.0403
 20
17.2477
 30
0.0
 10
7.184899999999999
 20
17.5433
 30
0.0
 10
7.184899999999999
 20
17.5433
 30
0.0
 10
7.184899999999999
 20
17.5433
 30
0.0
 10
7.184899999999999
 20
17.5433
 30
0.0
 10
7.3623
 20
17.8324
 30
0.0
 10
7.3623
 20
17.8324
 30
0.0
 10
7.3623
 20
17.8324
 30
0.0
 10
7.3623
 20
17.8324
 30
0.0
 10
7.565999999999999
 20
18.1216
 30
0.0
 10
7.565999999999999
 20
18.1216
 30
0.0
 10
7.565999999999999
 20
18.1216
 30
0.0
 10
7.565999999999999
 20
18.1216
 30
0.0
 10
7.809099999999999
 20
18.4106
 30
0.0
 10
7.809099999999999
 20
18.4106
 30
0.0
 10
7.809099999999999
 20
18.4106
 30
0.0
 10
7.809099999999999
 20
18.4106
 30
0.0
 10
8.091599999999999
 20
18.6866
 30
0.0
 10
8.091599999999999
 20
18.6866
 30
0.0
 10
8.091599999999999
 20
18.6866
 30
0.0
 10
8.091599999999999
 20
18.6866
 30
0.0
 10
8.4136
 20
18.956
 30
0.0
 10
8.4136
 20
18.956
 30
0.0
 10
8.4136
 20
18.956
 30
0.0
 10
8.4136
 20
18.956
 30
0.0
 10
8.781499999999999
 20
19.2188
 30
0.0
 10
8.781499999999999
 20
19.2188
 30
0.0
 10
8.781499999999999
 20
19.2188
 30
0.0
 10
8.781499999999999
 20
19.2188
 30
0.0
 10
9.1889
 20
19.4751
 30
0.0
 10
9.1889
 20
19.4751
 30
0.0
 10
9.1889
 20
19.4751
 30
0.0
 10
9.1889
 20
19.4751
 30
0.0
 10
9.648799999999999
 20
19.7248
 30
0.0
 10
9.648799999999999
 20
19.7248
 30
0.0
 10
9.648799999999999
 20
19.7248
 30
0.0
 10
9.648799999999999
 20
19.7248
 30
0.0
 10
10.1614
 20
19.9613
 30
0.0
 10
10.1614
 20
19.9613
 30
0.0
 10
10.1614
 20
19.9613
 30
0.0
 10
10.1614
 20
19.9613
 30
0.0
 10
10.7264
 20
20.1847
 30
0.0
 10
10.7264
 20
20.1847
 30
0.0
 10
10.7264
 20
20.1847
 30
0.0
 10
10.7264
 20
20.1847
 30
0.0
 10
11.3506
 20
20.4015
 30
0.0
 10
11.3506
 20
20.4015
 30
0.0
 10
11.3506
 20
20.4015
 30
0.0
 10
11.3506
 20
20.4015
 30
0.0
 10
12.0339
 20
20.5986
 30
0.0
 10
12.0339
 20
20.5986
 30
0.0
  0
SPLINE
  5
77
330
1F
100
AcDbEntity
  8
Layer 1
370
     5
100
AcDbSpline
210
0.0
220
0.0
230
1.0
 70
    11
 71
     3
 72
   156
 73
   152
 74
     0
 42
0.000000001
 43
0.0000000001
 40
0.0
 40
0.0
 40
0.0
 40
0.0
 40
0.0256410256410256
 40
0.0256410256410256
 40
0.0256410256410256
 40
0.0256410356410256
 40
0.0512820512820513
 40
0.0512820512820513
 40
0.0512820512820513
 40
0.0512820612820513
 40
0.0769230769230769
 40
0.0769230769230769
 40
0.0769230769230769
 40
0.0769230869230769
 40
0.1025641025641026
 40
0.1025641025641026
 40
0.1025641025641026
 40
0.1025641125641026
 40
0.1282051282051282
 40
0.1282051282051282
 40
0.1282051282051282
 40
0.1282051382051282
 40
0.1538461538461539
 40
0.1538461538461539
 40
0.1538461538461539
 40
0.1538461638461539
 40
0.1794871794871795
 40
0.1794871794871795
 40
0.1794871794871795
 40
0.1794871894871795
 40
0.2051282051282051
 40
0.2051282051282051
 40
0.2051282051282051
 40
0.2051282151282051
 40
0.2307692307692308
 40
0.2307692307692308
 40
0.2307692307692308
 40
0.2307692407692308
 40
0.2564102564102564
 40
0.2564102564102564
 40
0.2564102564102564
 40
0.2564102664102564
 40
0.282051282051282
 40
0.282051282051282
 40
0.282051282051282
 40
0.282051292051282
 40
0.3076923076923077
 40
0.3076923076923077
 40
0.3076923076923077
 40
0.3076923176923077
 40
0.3333333333333333
 40
0.3333333333333333
 40
0.3333333333333333
 40
0.3333333433333333
 40
0.358974358974359
 40
0.358974358974359
 40
0.358974358974359
 40
0.358974368974359
 40
0.3846153846153846
 40
0.3846153846153846
 40
0.3846153846153846
 40
0.3846153946153846
 40
0.4102564102564103
 40
0.4102564102564103
 40
0.4102564102564103
 40
0.4102564202564102
 40
0.435897435897436
 40
0.435897435897436
 40
0.435897435897436
 40
0.4358974458974359
 40
0.4615384615384616
 40
0.4615384615384616
 40
0.4615384615384616
 40
0.4615384715384617
 40
0.4871794871794873
 40
0.4871794871794873
 40
0.4871794871794873
 40
0.4871794971794873
 40
0.5128205128205128
 40
0.5128205128205128
 40
0.5128205128205128
 40
0.5128205228205128
 40
0.5384615384615385
 40
0.5384615384615385
 40
0.5384615384615385
 40
0.5384615484615385
 40
0.5641025641025641
 40
0.5641025641025641
 40
0.5641025641025641
 40
0.5641025741025642
 40
0.5897435897435898
 40
0.5897435897435898
 40
0.5897435897435898
 40
0.5897435997435898
 40
0.6153846153846155
 40
0.6153846153846155
 40
0.6153846153846155
 40
0.6153846253846155
 40
0.6410256410256411
 40
0.6410256410256411
 40
0.6410256410256411
 40
0.6410256510256412
 40
0.6666666666666666
 40
0.6666666666666666
 40
0.6666666666666666
 40
0.6666666766666668
 40
0.6923076923076924
 40
0.6923076923076924
 40
0.6923076923076924
 40
0.6923077023076924
 40
0.7179487179487181
 40
0.7179487179487181
 40
0.7179487179487181
 40
0.7179487279487181
 40
0.7435897435897437
 40
0.7435897435897437
 40
0.7435897435897437
 40
0.7435897535897437
 40
0.7692307692307693
 40
0.7692307692307693
 40
0.7692307692307693
 40
0.7692307792307693
 40
0.7948717948717948
 40
0.7948717948717948
 40
0.7948717948717948
 40
0.7948718048717949
 40
0.8205128205128204
 40
0.8205128205128204
 40
0.8205128205128204
 40
0.8205128305128205
 40
0.8461538461538461
 40
0.8461538461538461
 40
0.8461538461538461
 40
0.8461538561538461
 40
0.8717948717948718
 40
0.8717948717948718
 40
0.8717948717948718
 40
0.8717948817948718
 40
0.8974358974358974
 40
0.8974358974358974
 40
0.8974358974358974
 40
0.8974359074358975
 40
0.9230769230769231
 40
0.9230769230769231
 40
0.9230769230769231
 40
0.9230769330769232
 40
0.9487179487179487
 40
0.9487179487179487
 40
0.9487179487179487
 40
0.9487179587179488
 40
1.0
 40
1.0
 40
1.0
 40
1.0
 10
7.6974
 20
19.0086
 30
0.0
 10
7.6974
 20
19.0086
 30
0.0
 10
7.2572
 20
19.048
 30
0.0
 10
7.2572
 20
19.048
 30
0.0
 10
7.2572
 20
19.048
 30
0.0
 10
7.2572
 20
19.048
 30
0.0
 10
6.830099999999999
 20
19.1268
 30
0.0
 10
6.830099999999999
 20
19.1268
 30
0.0
 10
6.830099999999999
 20
19.1268
 30
0.0
 10
6.830099999999999
 20
19.1268
 30
0.0
 10
6.429299999999999
 20
19.2517
 30
0.0
 10
6.429299999999999
 20
19.2517
 30
0.0
 10
6.429299999999999
 20
19.2517
 30
0.0
 10
6.429299999999999
 20
19.2517
 30
0.0
 10
6.041599999999999
 20
19.4094
 30
0.0
 10
6.041599999999999
 20
19.4094
 30
0.0
 10
6.041599999999999
 20
19.4094
 30
0.0
 10
6.041599999999999
 20
19.4094
 30
0.0
 10
5.667099999999999
 20
19.5933
 30
0.0
 10
5.667099999999999
 20
19.5933
 30
0.0
 10
5.667099999999999
 20
19.5933
 30
0.0
 10
5.667099999999999
 20
19.5933
 30
0.0
 10
5.305699999999999
 20
19.8102
 30
0.0
 10
5.305699999999999
 20
19.8102
 30
0.0
 10
5.305699999999999
 20
19.8102
 30
0.0
 10
5.305699999999999
 20
19.8102
 30
0.0
 10
4.602699999999999
 20
20.3029
 30
0.0
 10
4.602699999999999
 20
20.3029
 30
0.0
 10
4.602699999999999
 20
20.3029
 30
0.0
 10
4.602699999999999
 20
20.3029
 30
0.0
 10
3.919299999999999
 20
20.8549
 30
0.0
 10
3.919299999999999
 20
20.8549
 30
0.0
 10
3.919299999999999
 20
20.8549
 30
0.0
 10
3.919299999999999
 20
20.8549
 30
0.0
 10
3.242599999999999
 20
21.42
 30
0.0
 10
3.242599999999999
 20
21.42
 30
0.0
 10
3.242599999999999
 20
21.42
 30
0.0
 10
3.242599999999999
 20
21.42
 30
0.0
 10
2.5461
 20
21.9719
 30
0.0
 10
2.5461
 20
21.9719
 30
0.0
 10
2.5461
 20
21.9719
 30
0.0
 10
2.5461
 20
21.9719
 30
0.0
 10
2.184699999999999
 20
22.2281
 30
0.0
 10
2.184699999999999
 20
22.2281
 30
0.0
 10
2.184699999999999
 20
22.2281
 30
0.0
 10
2.184699999999999
 20
22.2281
 30
0.0
 10
1.816699999999999
 20
22.4712
 30
0.0
 10
1.816699999999999
 20
22.4712
 30
0.0
 10
1.816699999999999
 20
22.4712
 30
0.0
 10
1.816699999999999
 20
22.4712
 30
0.0
 10
2.125599999999999
 20
22.3792
 30
0.0
 10
2.125599999999999
 20
22.3792
 30
0.0
 10
2.125599999999999
 20
22.3792
 30
0.0
 10
2.125599999999999
 20
22.3792
 30
0.0
 10
2.427799999999999
 20
22.3201
 30
0.0
 10
2.427799999999999
 20
22.3201
 30
0.0
 10
2.427799999999999
 20
22.3201
 30
0.0
 10
2.427799999999999
 20
22.3201
 30
0.0
 10
2.729999999999999
 20
22.2938
 30
0.0
 10
2.729999999999999
 20
22.2938
 30
0.0
 10
2.729999999999999
 20
22.2938
 30
0.0
 10
2.729999999999999
 20
22.2938
 30
0.0
 10
3.0257
 20
22.3004
 30
0.0
 10
3.0257
 20
22.3004
 30
0.0
 10
3.0257
 20
22.3004
 30
0.0
 10
3.0257
 20
22.3004
 30
0.0
 10
3.6171
 20
22.3727
 30
0.0
 10
3.6171
 20
22.3727
 30
0.0
 10
3.6171
 20
22.3727
 30
0.0
 10
3.6171
 20
22.3727
 30
0.0
 10
4.2019
 20
22.5041
 30
0.0
 10
4.2019
 20
22.5041
 30
0.0
 10
4.2019
 20
22.5041
 30
0.0
 10
4.2019
 20
22.5041
 30
0.0
 10
4.7801
 20
22.6487
 30
0.0
 10
4.7801
 20
22.6487
 30
0.0
 10
4.7801
 20
22.6487
 30
0.0
 10
4.7801
 20
22.6487
 30
0.0
 10
5.358299999999999
 20
22.7669
 30
0.0
 10
5.358299999999999
 20
22.7669
 30
0.0
 10
5.358299999999999
 20
22.7669
 30
0.0
 10
5.358299999999999
 20
22.7669
 30
0.0
 10
5.942999999999999
 20
22.826
 30
0.0
 10
5.942999999999999
 20
22.826
 30
0.0
 10
5.942999999999999
 20
22.826
 30
0.0
 10
5.942999999999999
 20
22.826
 30
0.0
 10
6.232099999999999
 20
22.826
 30
0.0
 10
6.232099999999999
 20
22.826
 30
0.0
 10
6.232099999999999
 20
22.826
 30
0.0
 10
6.232099999999999
 20
22.826
 30
0.0
 10
6.5278
 20
22.7866
 30
0.0
 10
6.5278
 20
22.7866
 30
0.0
 10
6.5278
 20
22.7866
 30
0.0
 10
6.5278
 20
22.7866
 30
0.0
 10
6.7972
 20
22.7275
 30
0.0
 10
6.7972
 20
22.7275
 30
0.0
 10
6.7972
 20
22.7275
 30
0.0
 10
6.7972
 20
22.7275
 30
0.0
 10
7.053499999999999
 20
22.6355
 30
0.0
 10
7.053499999999999
 20
22.6355
 30
0.0
 10
7.053499999999999
 20
22.6355
 30
0.0
 10
7.053499999999999
 20
22.6355
 30
0.0
 10
7.5528
 20
22.4056
 30
0.0
 10
7.5528
 20
22.4056
 30
0.0
 10
7.5528
 20
22.4056
 30
0.0
 10
7.5528
 20
22.4056
 30
0.0
 10
8.038999999999999
 20
22.1033
 30
0.0
 10
8.038999999999999
 20
22.1033
 30
0.0
 10
8.038999999999999
 20
22.1033
 30
0.0
 10
8.038999999999999
 20
22.1033
 30
0.0
 10
8.505499999999999
 20
21.7748
 30
0.0
 10
8.505499999999999
 20
21.7748
 30
0.0
 10
8.505499999999999
 20
21.7748
 30
0.0
 10
8.505499999999999
 20
21.7748
 30
0.0
 10
9.4451
 20
21.1046
 30
0.0
 10
9.4451
 20
21.1046
 30
0.0
 10
9.4451
 20
21.1046
 30
0.0
 10
9.4451
 20
21.1046
 30
0.0
 10
9.924799999999999
 20
20.822
 30
0.0
 10
9.924799999999999
 20
20.822
 30
0.0
 10
9.924799999999999
 20
20.822
 30
0.0
 10
9.924799999999999
 20
20.822
 30
0.0
 10
10.1088
 20
20.7235
 30
0.0
 10
10.1088
 20
20.7235
 30
0.0
 10
10.1088
 20
20.7235
 30
0.0
 10
10.1088
 20
20.7235
 30
0.0
 10
10.4242
 20
20.6052
 30
0.0
 10
10.4242
 20
20.6052
 30
0.0
 10
10.4242
 20
20.6052
 30
0.0
 10
10.4242
 20
20.6052
 30
0.0
 10
9.977399999999999
 20
20.4278
 30
0.0
 10
9.977399999999999
 20
20.4278
 30
0.0
 10
9.977399999999999
 20
20.4278
 30
0.0
 10
9.977399999999999
 20
20.4278
 30
0.0
 10
9.57
 20
20.2438
 30
0.0
 10
9.57
 20
20.2438
 30
0.0
 10
9.57
 20
20.2438
 30
0.0
 10
9.57
 20
20.2438
 30
0.0
 10
8.834099999999999
 20
19.8496
 30
0.0
 10
8.834099999999999
 20
19.8496
 30
0.0
 10
8.834099999999999
 20
19.8496
 30
0.0
 10
8.834099999999999
 20
19.8496
 30
0.0
 10
8.216499999999999
 20
19.4422
 30
0.0
 10
8.216499999999999
 20
19.4422
 30
0.0
 10
8.216499999999999
 20
19.4422
 30
0.0
 10
8.216499999999999
 20
19.4422
 30
0.0
 10
7.9405
 20
19.2254
 30
0.0
 10
7.9405
 20
19.2254
 30
0.0
 10
7.9405
 20
19.2254
 30
0.0
 10
7.9405
 20
19.2254
 30
0.0
 10
7.6974
 20
19.0086
 30
0.0
 10
7.6974
 20
19.0086
 30
0.0
  0
SPLINE
  5
78
330
1F
100
AcDbEntity
  8
Layer 1
370
     5
100
AcDbSpline
210
0.0
220
0.0
230
1.0
 70
    11
 71
     3
 72
   140
 73
   136
 74
     0
 42
0.000000001
 43
0.0000000001
 40
0.0
 40
0.0
 40
0.0
 40
0.0
 40
0.0285714285714286
 40
0.0285714285714286
 40
0.0285714285714286
 40
0.0285714385714286
 40
0.0571428571428571
 40
0.0571428571428571
 40
0.0571428571428571
 40
0.0571428671428571
 40
0.0857142857142857
 40
0.0857142857142857
 40
0.0857142857142857
 40
0.0857142957142857
 40
0.1142857142857143
 40
0.1142857142857143
 40
0.1142857142857143
 40
0.1142857242857143
 40
0.1428571428571428
 40
0.1428571428571428
 40
0.1428571428571428
 40
0.1428571528571428
 40
0.1714285714285714
 40
0.1714285714285714
 40
0.1714285714285714
 40
0.1714285814285714
 40
0.2
 40
0.2
 40
0.2
 40
0.20000001
 40
0.2285714285714286
 40
0.2285714285714286
 40
0.2285714285714286
 40
0.2285714385714286
 40
0.2571428571428571
 40
0.2571428571428571
 40
0.2571428571428571
 40
0.2571428671428571
 40
0.2857142857142857
 40
0.2857142857142857
 40
0.2857142857142857
 40
0.2857142957142857
 40
0.3142857142857143
 40
0.3142857142857143
 40
0.3142857142857143
 40
0.3142857242857143
 40
0.3428571428571429
 40
0.3428571428571429
 40
0.3428571428571429
 40
0.3428571528571429
 40
0.3714285714285714
 40
0.3714285714285714
 40
0.3714285714285714
 40
0.3714285814285714
 40
0.4
 40
0.4
 40
0.4
 40
0.4000000100000001
 40
0.4285714285714285
 40
0.4285714285714285
 40
0.4285714285714285
 40
0.4285714385714285
 40
0.4571428571428572
 40
0.4571428571428572
 40
0.4571428571428572
 40
0.4571428671428571
 40
0.4857142857142857
 40
0.4857142857142857
 40
0.4857142857142857
 40
0.4857142957142857
 40
0.5142857142857143
 40
0.5142857142857143
 40
0.5142857142857143
 40
0.5142857242857143
 40
0.5428571428571428
 40
0.5428571428571428
 40
0.5428571428571428
 40
0.5428571528571429
 40
0.5714285714285714
 40
0.5714285714285714
 40
0.5714285714285714
 40
0.5714285814285715
 40
0.6
 40
0.6
 40
0.6
 40
0.6000000100000001
 40
0.6285714285714286
 40
0.6285714285714286
 40
0.6285714285714286
 40
0.6285714385714286
 40
0.6571428571428572
 40
0.6571428571428572
 40
0.6571428571428572
 40
0.6571428671428573
 40
0.6857142857142858
 40
0.6857142857142858
 40
0.6857142857142858
 40
0.6857142957142858
 40
0.7142857142857144
 40
0.7142857142857144
 40
0.7142857142857144
 40
0.7142857242857144
 40
0.7428571428571429
 40
0.7428571428571429
 40
0.7428571428571429
 40
0.7428571528571429
 40
0.7714285714285715
 40
0.7714285714285715
 40
0.7714285714285715
 40
0.7714285814285715
 40
0.8
 40
0.8
 40
0.8
 40
0.8000000100000001
 40
0.8285714285714286
 40
0.8285714285714286
 40
0.8285714285714286
 40
0.8285714385714285
 40
0.8571428571428571
 40
0.8571428571428571
 40
0.8571428571428571
 40
0.857142867142857
 40
0.8857142857142857
 40
0.8857142857142857
 40
0.8857142857142857
 40
0.8857142957142857
 40
0.9142857142857144
 40
0.9142857142857144
 40
0.9142857142857144
 40
0.9142857242857143
 40
0.9428571428571428
 40
0.9428571428571428
 40
0.9428571428571428
 40
0.9428571528571428
 40
1.0
 40
1.0
 40
1.0
 40
1.0
 10
24.288
 20
26.0522
 30
0.0
 10
24.288
 20
26.0522
 30
0.0
 10
24.2814
 20
26.8144
 30
0.0
 10
24.2814
 20
26.8144
 30
0.0
 10
24.2814
 20
26.8144
 30
0.0
 10
24.2814
 20
26.8144
 30
0.0
 10
24.2617
 20
27.5831
 30
0.0
 10
24.2617
 20
27.5831
 30
0.0
 10
24.2617
 20
27.5831
 30
0.0
 10
24.2617
 20
27.5831
 30
0.0
 10
24.2486
 20
28.3519
 30
0.0
 10
24.2486
 20
28.3519
 30
0.0
 10
24.2486
 20
28.3519
 30
0.0
 10
24.2486
 20
28.3519
 30
0.0
 10
24.2749
 20
29.1141
 30
0.0
 10
24.2749
 20
29.1141
 30
0.0
 10
24.2749
 20
29.1141
 30
0.0
 10
24.2749
 20
29.1141
 30
0.0
 10
24.3537
 20
29.8697
 30
0.0
 10
24.3537
 20
29.8697
 30
0.0
 10
24.3537
 20
29.8697
 30
0.0
 10
24.3537
 20
29.8697
 30
0.0
 10
24.426
 20
30.2376
 30
0.0
 10
24.426
 20
30.2376
 30
0.0
 10
24.426
 20
30.2376
 30
0.0
 10
24.426
 20
30.2376
 30
0.0
 10
24.5245
 20
30.599
 30
0.0
 10
24.5245
 20
30.599
 30
0.0
 10
24.5245
 20
30.599
 30
0.0
 10
24.5245
 20
30.599
 30
0.0
 10
24.6428
 20
30.9604
 30
0.0
 10
24.6428
 20
30.9604
 30
0.0
 10
24.6428
 20
30.9604
 30
0.0
 10
24.6428
 20
30.9604
 30
0.0
 10
24.7939
 20
31.3152
 30
0.0
 10
24.7939
 20
31.3152
 30
0.0
 10
24.7939
 20
31.3152
 30
0.0
 10
24.7939
 20
31.3152
 30
0.0
 10
24.9779
 20
31.6569
 30
0.0
 10
24.9779
 20
31.6569
 30
0.0
 10
24.9779
 20
31.6569
 30
0.0
 10
24.9779
 20
31.6569
 30
0.0
 10
25.2013
 20
31.992
 30
0.0
 10
25.2013
 20
31.992
 30
0.0
 10
25.2013
 20
31.992
 30
0.0
 10
25.2013
 20
31.992
 30
0.0
 10
25.9241
 20
32.9513
 30
0.0
 10
25.9241
 20
32.9513
 30
0.0
 10
25.9241
 20
32.9513
 30
0.0
 10
25.9241
 20
32.9513
 30
0.0
 10
26.6534
 20
33.9105
 30
0.0
 10
26.6534
 20
33.9105
 30
0.0
 10
26.6534
 20
33.9105
 30
0.0
 10
26.6534
 20
33.9105
 30
0.0
 10
27.3236
 20
34.9158
 30
0.0
 10
27.3236
 20
34.9158
 30
0.0
 10
27.3236
 20
34.9158
 30
0.0
 10
27.3236
 20
34.9158
 30
0.0
 10
27.6193
 20
35.4481
 30
0.0
 10
27.6193
 20
35.4481
 30
0.0
 10
27.6193
 20
35.4481
 30
0.0
 10
27.6193
 20
35.4481
 30
0.0
 10
27.8689
 20
36.0
 30
0.0
 10
27.8689
 20
36.0
 30
0.0
 10
27.8689
 20
36.0
 30
0.0
 10
27.8689
 20
36.0
 30
0.0
 10
28.0595
 20
35.3101
 30
0.0
 10
28.0595
 20
35.3101
 30
0.0
 10
28.0595
 20
35.3101
 30
0.0
 10
28.0595
 20
35.3101
 30
0.0
 10
28.1975
 20
34.6005
 30
0.0
 10
28.1975
 20
34.6005
 30
0.0
 10
28.1975
 20
34.6005
 30
0.0
 10
28.1975
 20
34.6005
 30
0.0
 10
28.2829
 20
33.8843
 30
0.0
 10
28.2829
 20
33.8843
 30
0.0
 10
28.2829
 20
33.8843
 30
0.0
 10
28.2829
 20
33.8843
 30
0.0
 10
28.3158
 20
33.155
 30
0.0
 10
28.3158
 20
33.155
 30
0.0
 10
28.3158
 20
33.155
 30
0.0
 10
28.3158
 20
33.155
 30
0.0
 10
28.3026
 20
32.4322
 30
0.0
 10
28.3026
 20
32.4322
 30
0.0
 10
28.3026
 20
32.4322
 30
0.0
 10
28.3026
 20
32.4322
 30
0.0
 10
28.2303
 20
31.716
 30
0.0
 10
28.2303
 20
31.716
 30
0.0
 10
28.2303
 20
31.716
 30
0.0
 10
28.2303
 20
31.716
 30
0.0
 10
28.0989
 20
31.0064
 30
0.0
 10
28.0989
 20
31.0064
 30
0.0
 10
28.0989
 20
31.0064
 30
0.0
 10
28.0989
 20
31.0064
 30
0.0
 10
27.9149
 20
30.3165
 30
0.0
 10
27.9149
 20
30.3165
 30
0.0
 10
27.9149
 20
30.3165
 30
0.0
 10
27.9149
 20
30.3165
 30
0.0
 10
27.6784
 20
29.6463
 30
0.0
 10
27.6784
 20
29.6463
 30
0.0
 10
27.6784
 20
29.6463
 30
0.0
 10
27.6784
 20
29.6463
 30
0.0
 10
27.3762
 20
29.0024
 30
0.0
 10
27.3762
 20
29.0024
 30
0.0
 10
27.3762
 20
29.0024
 30
0.0
 10
27.3762
 20
29.0024
 30
0.0
 10
27.0148
 20
28.3979
 30
0.0
 10
27.0148
 20
28.3979
 30
0.0
 10
27.0148
 20
28.3979
 30
0.0
 10
27.0148
 20
28.3979
 30
0.0
 10
26.8111
 20
28.1088
 30
0.0
 10
26.8111
 20
28.1088
 30
0.0
 10
26.8111
 20
28.1088
 30
0.0
 10
26.8111
 20
28.1088
 30
0.0
 10
26.5943
 20
27.8263
 30
0.0
 10
26.5943
 20
27.8263
 30
0.0
 10
26.5943
 20
27.8263
 30
0.0
 10
26.5943
 20
27.8263
 30
0.0
 10
26.1146
 20
27.3006
 30
0.0
 10
26.1146
 20
27.3006
 30
0.0
 10
26.1146
 20
27.3006
 30
0.0
 10
26.1146
 20
27.3006
 30
0.0
 10
25.8518
 20
27.0575
 30
0.0
 10
25.8518
 20
27.0575
 30
0.0
 10
25.8518
 20
27.0575
 30
0.0
 10
25.8518
 20
27.0575
 30
0.0
 10
25.5693
 20
26.8275
 30
0.0
 10
25.5693
 20
26.8275
 30
0.0
 10
25.5693
 20
26.8275
 30
0.0
 10
25.5693
 20
26.8275
 30
0.0
 10
24.9582
 20
26.407
 30
0.0
 10
24.9582
 20
26.407
 30
0.0
 10
24.9582
 20
26.407
 30
0.0
 10
24.9582
 20
26.407
 30
0.0
 10
24.288
 20
26.0522
 30
0.0
 10
24.288
 20
26.0522
 30
0.0
  0
SPLINE
  5
79
330
1F
100
AcDbEntity
  8
Layer 1
370
     5
100
AcDbSpline
210
0.0
220
0.0
230
1.0
 70
    11
 71
     3
 72
   176
 73
   172
 74
     0
 42
0.000000001
 43
0.0000000001
 40
0.0
 40
0.0
 40
0.0
 40
0.0
 40
0.0227272727272727
 40
0.0227272727272727
 40
0.0227272727272727
 40
0.0227272827272727
 40
0.0454545454545455
 40
0.0454545454545455
 40
0.0454545454545455
 40
0.0454545554545455
 40
0.0681818181818182
 40
0.0681818181818182
 40
0.0681818181818182
 40
0.0681818281818182
 40
0.0909090909090909
 40
0.0909090909090909
 40
0.0909090909090909
 40
0.0909091009090909
 40
0.1136363636363636
 40
0.1136363636363636
 40
0.1136363636363636
 40
0.1136363736363636
 40
0.1363636363636364
 40
0.1363636363636364
 40
0.1363636363636364
 40
0.1363636463636364
 40
0.1590909090909091
 40
0.1590909090909091
 40
0.1590909090909091
 40
0.1590909190909091
 40
0.1818181818181818
 40
0.1818181818181818
 40
0.1818181818181818
 40
0.1818181918181818
 40
0.2045454545454546
 40
0.2045454545454546
 40
0.2045454545454546
 40
0.2045454645454546
 40
0.2272727272727273
 40
0.2272727272727273
 40
0.2272727272727273
 40
0.2272727372727273
 40
0.25
 40
0.25
 40
0.25
 40
0.25000001
 40
0.2727272727272727
 40
0.2727272727272727
 40
0.2727272727272727
 40
0.2727272827272727
 40
0.2954545454545455
 40
0.2954545454545455
 40
0.2954545454545455
 40
0.2954545554545455
 40
0.3181818181818182
 40
0.3181818181818182
 40
0.3181818181818182
 40
0.3181818281818182
 40
0.3409090909090909
 40
0.3409090909090909
 40
0.3409090909090909
 40
0.3409091009090909
 40
0.3636363636363636
 40
0.3636363636363636
 40
0.3636363636363636
 40
0.3636363736363636
 40
0.3863636363636364
 40
0.3863636363636364
 40
0.3863636363636364
 40
0.3863636463636364
 40
0.4090909090909091
 40
0.4090909090909091
 40
0.4090909090909091
 40
0.4090909190909091
 40
0.4318181818181819
 40
0.4318181818181819
 40
0.4318181818181819
 40
0.4318181918181818
 40
0.4545454545454545
 40
0.4545454545454545
 40
0.4545454545454545
 40
0.4545454645454545
 40
0.4772727272727274
 40
0.4772727272727274
 40
0.4772727272727274
 40
0.4772727372727273
 40
0.5
 40
0.5
 40
0.5
 40
0.5000000100000001
 40
0.5227272727272727
 40
0.5227272727272727
 40
0.5227272727272727
 40
0.5227272827272728
 40
0.5454545454545455
 40
0.5454545454545455
 40
0.5454545454545455
 40
0.5454545554545455
 40
0.5681818181818183
 40
0.5681818181818183
 40
0.5681818181818183
 40
0.5681818281818183
 40
0.590909090909091
 40
0.590909090909091
 40
0.590909090909091
 40
0.590909100909091
 40
0.6136363636363637
 40
0.6136363636363637
 40
0.6136363636363637
 40
0.6136363736363637
 40
0.6363636363636364
 40
0.6363636363636364
 40
0.6363636363636364
 40
0.6363636463636365
 40
0.6590909090909091
 40
0.6590909090909091
 40
0.6590909090909091
 40
0.6590909190909091
 40
0.6818181818181818
 40
0.6818181818181818
 40
0.6818181818181818
 40
0.6818181918181818
 40
0.7045454545454546
 40
0.7045454545454546
 40
0.7045454545454546
 40
0.7045454645454547
 40
0.7272727272727274
 40
0.7272727272727274
 40
0.7272727272727274
 40
0.7272727372727274
 40
0.75
 40
0.75
 40
0.75
 40
0.7500000100000001
 40
0.7727272727272727
 40
0.7727272727272727
 40
0.7727272727272727
 40
0.7727272827272728
 40
0.7954545454545455
 40
0.7954545454545455
 40
0.7954545454545455
 40
0.7954545554545455
 40
0.8181818181818181
 40
0.8181818181818181
 40
0.8181818181818181
 40
0.8181818281818182
 40
0.840909090909091
 40
0.840909090909091
 40
0.840909090909091
 40
0.8409091009090909
 40
0.8636363636363636
 40
0.8636363636363636
 40
0.8636363636363636
 40
0.8636363736363637
 40
0.8863636363636363
 40
0.8863636363636363
 40
0.8863636363636363
 40
0.8863636463636364
 40
0.9090909090909091
 40
0.9090909090909091
 40
0.9090909090909091
 40
0.9090909190909092
 40
0.9318181818181818
 40
0.9318181818181818
 40
0.9318181818181818
 40
0.9318181918181817
 40
0.9545454545454546
 40
0.9545454545454546
 40
0.9545454545454546
 40
0.9545454645454546
 40
1.0
 40
1.0
 40
1.0
 40
1.0
 10
24.8728
 20
25.6777
 30
0.0
 10
24.8728
 20
25.6777
 30
0.0
 10
25.497
 20
26.0719
 30
0.0
 10
25.497
 20
26.0719
 30
0.0
 10
25.497
 20
26.0719
 30
0.0
 10
25.497
 20
26.0719
 30
0.0
 10
25.7992
 20
26.3018
 30
0.0
 10
25.7992
 20
26.3018
 30
0.0
 10
25.7992
 20
26.3018
 30
0.0
 10
25.7992
 20
26.3018
 30
0.0
 10
26.0884
 20
26.545
 30
0.0
 10
26.0884
 20
26.545
 30
0.0
 10
26.0884
 20
26.545
 30
0.0
 10
26.0884
 20
26.545
 30
0.0
 10
26.3643
 20
26.8078
 30
0.0
 10
26.3643
 20
26.8078
 30
0.0
 10
26.3643
 20
26.8078
 30
0.0
 10
26.3643
 20
26.8078
 30
0.0
 10
26.6271
 20
27.0904
 30
0.0
 10
26.6271
 20
27.0904
 30
0.0
 10
26.6271
 20
27.0904
 30
0.0
 10
26.6271
 20
27.0904
 30
0.0
 10
27.1265
 20
27.6817
 30
0.0
 10
27.1265
 20
27.6817
 30
0.0
 10
27.1265
 20
27.6817
 30
0.0
 10
27.1265
 20
27.6817
 30
0.0
 10
27.5667
 20
28.319
 30
0.0
 10
27.5667
 20
28.319
 30
0.0
 10
27.5667
 20
28.319
 30
0.0
 10
27.5667
 20
28.319
 30
0.0
 10
27.9478
 20
28.9892
 30
0.0
 10
27.9478
 20
28.9892
 30
0.0
 10
27.9478
 20
28.9892
 30
0.0
 10
27.9478
 20
28.9892
 30
0.0
 10
28.2632
 20
29.6857
 30
0.0
 10
28.2632
 20
29.6857
 30
0.0
 10
28.2632
 20
29.6857
 30
0.0
 10
28.2632
 20
29.6857
 30
0.0
 10
28.5128
 20
30.3822
 30
0.0
 10
28.5128
 20
30.3822
 30
0.0
 10
28.5128
 20
30.3822
 30
0.0
 10
28.5128
 20
30.3822
 30
0.0
 10
28.8677
 20
30.5333
 30
0.0
 10
28.8677
 20
30.5333
 30
0.0
 10
28.8677
 20
30.5333
 30
0.0
 10
28.8677
 20
30.5333
 30
0.0
 10
29.2356
 20
30.6319
 30
0.0
 10
29.2356
 20
30.6319
 30
0.0
 10
29.2356
 20
30.6319
 30
0.0
 10
29.2356
 20
30.6319
 30
0.0
 10
29.597
 20
30.691
 30
0.0
 10
29.597
 20
30.691
 30
0.0
 10
29.597
 20
30.691
 30
0.0
 10
29.597
 20
30.691
 30
0.0
 10
29.9584
 20
30.7107
 30
0.0
 10
29.9584
 20
30.7107
 30
0.0
 10
29.9584
 20
30.7107
 30
0.0
 10
29.9584
 20
30.7107
 30
0.0
 10
30.3197
 20
30.6976
 30
0.0
 10
30.3197
 20
30.6976
 30
0.0
 10
30.3197
 20
30.6976
 30
0.0
 10
30.3197
 20
30.6976
 30
0.0
 10
30.66800000000001
 20
30.6516
 30
0.0
 10
30.66800000000001
 20
30.6516
 30
0.0
 10
30.66800000000001
 20
30.6516
 30
0.0
 10
30.66800000000001
 20
30.6516
 30
0.0
 10
31.3513
 20
30.507
 30
0.0
 10
31.3513
 20
30.507
 30
0.0
 10
31.3513
 20
30.507
 30
0.0
 10
31.3513
 20
30.507
 30
0.0
 10
31.9756
 20
30.3099
 30
0.0
 10
31.9756
 20
30.3099
 30
0.0
 10
31.9756
 20
30.3099
 30
0.0
 10
31.9756
 20
30.3099
 30
0.0
 10
32.5274
 20
30.1128
 30
0.0
 10
32.5274
 20
30.1128
 30
0.0
 10
32.5274
 20
30.1128
 30
0.0
 10
32.5274
 20
30.1128
 30
0.0
 10
32.9874
 20
29.942
 30
0.0
 10
32.9874
 20
29.942
 30
0.0
 10
32.9874
 20
29.942
 30
0.0
 10
32.9874
 20
29.942
 30
0.0
 10
33.3291
 20
29.85
 30
0.0
 10
33.3291
 20
29.85
 30
0.0
 10
33.3291
 20
29.85
 30
0.0
 10
33.3291
 20
29.85
 30
0.0
 10
33.04
 20
29.7908
 30
0.0
 10
33.04
 20
29.7908
 30
0.0
 10
33.04
 20
29.7908
 30
0.0
 10
33.04
 20
29.7908
 30
0.0
 10
32.76400000000001
 20
29.6988
 30
0.0
 10
32.76400000000001
 20
29.6988
 30
0.0
 10
32.76400000000001
 20
29.6988
 30
0.0
 10
32.76400000000001
 20
29.6988
 30
0.0
 10
32.488
 20
29.574
 30
0.0
 10
32.488
 20
29.574
 30
0.0
 10
32.488
 20
29.574
 30
0.0
 10
32.488
 20
29.574
 30
0.0
 10
32.2187
 20
29.4295
 30
0.0
 10
32.2187
 20
29.4295
 30
0.0
 10
32.2187
 20
29.4295
 30
0.0
 10
32.2187
 20
29.4295
 30
0.0
 10
31.7061
 20
29.0812
 30
0.0
 10
31.7061
 20
29.0812
 30
0.0
 10
31.7061
 20
29.0812
 30
0.0
 10
31.7061
 20
29.0812
 30
0.0
 10
31.2068
 20
28.6541
 30
0.0
 10
31.2068
 20
28.6541
 30
0.0
 10
31.2068
 20
28.6541
 30
0.0
 10
31.2068
 20
28.6541
 30
0.0
 10
30.7271
 20
28.1811
 30
0.0
 10
30.7271
 20
28.1811
 30
0.0
 10
30.7271
 20
28.1811
 30
0.0
 10
30.7271
 20
28.1811
 30
0.0
 10
30.2475
 20
27.6817
 30
0.0
 10
30.2475
 20
27.6817
 30
0.0
 10
30.2475
 20
27.6817
 30
0.0
 10
30.2475
 20
27.6817
 30
0.0
 10
29.3079
 20
26.683
 30
0.0
 10
29.3079
 20
26.683
 30
0.0
 10
29.3079
 20
26.683
 30
0.0
 10
29.3079
 20
26.683
 30
0.0
 10
28.8282
 20
26.223
 30
0.0
 10
28.8282
 20
26.223
 30
0.0
 10
28.8282
 20
26.223
 30
0.0
 10
28.8282
 20
26.223
 30
0.0
 10
28.3355
 20
25.8156
 30
0.0
 10
28.3355
 20
25.8156
 30
0.0
 10
28.3355
 20
25.8156
 30
0.0
 10
28.3355
 20
25.8156
 30
0.0
 10
27.8295
 20
25.4871
 30
0.0
 10
27.8295
 20
25.4871
 30
0.0
 10
27.8295
 20
25.4871
 30
0.0
 10
27.8295
 20
25.4871
 30
0.0
 10
27.5667
 20
25.3557
 30
0.0
 10
27.5667
 20
25.3557
 30
0.0
 10
27.5667
 20
25.3557
 30
0.0
 10
27.5667
 20
25.3557
 30
0.0
 10
27.2973
 20
25.2506
 30
0.0
 10
27.2973
 20
25.2506
 30
0.0
 10
27.2973
 20
25.2506
 30
0.0
 10
27.2973
 20
25.2506
 30
0.0
 10
27.0279
 20
25.1717
 30
0.0
 10
27.0279
 20
25.1717
 30
0.0
 10
27.0279
 20
25.1717
 30
0.0
 10
27.0279
 20
25.1717
 30
0.0
 10
26.7454
 20
25.1323
 30
0.0
 10
26.7454
 20
25.1323
 30
0.0
 10
26.7454
 20
25.1323
 30
0.0
 10
26.7454
 20
25.1323
 30
0.0
 10
26.4563
 20
25.1192
 30
0.0
 10
26.4563
 20
25.1192
 30
0.0
 10
26.4563
 20
25.1192
 30
0.0
 10
26.4563
 20
25.1192
 30
0.0
 10
26.1606
 20
25.1454
 30
0.0
 10
26.1606
 20
25.1454
 30
0.0
 10
26.1606
 20
25.1454
 30
0.0
 10
26.1606
 20
25.1454
 30
0.0
 10
25.8518
 20
25.2177
 30
0.0
 10
25.8518
 20
25.2177
 30
0.0
 10
25.8518
 20
25.2177
 30
0.0
 10
25.8518
 20
25.2177
 30
0.0
 10
25.5364
 20
25.3229
 30
0.0
 10
25.5364
 20
25.3229
 30
0.0
 10
25.5364
 20
25.3229
 30
0.0
 10
25.5364
 20
25.3229
 30
0.0
 10
25.2079
 20
25.474
 30
0.0
 10
25.2079
 20
25.474
 30
0.0
 10
25.2079
 20
25.474
 30
0.0
 10
25.2079
 20
25.474
 30
0.0
 10
24.8728
 20
25.6777
 30
0.0
 10
24.8728
 20
25.6777
 30
0.0
  0
SPLINE
  5
7A
330
1F
100
AcDbEntity
  8
Layer 1
370
     5
100
AcDbSpline
210
0.0
220
0.0
230
1.0
 70
    11
 71
     3
 72
   160
 73
   156
 74
     0
 42
0.000000001
 43
0.0000000001
 40
0.0
 40
0.0
 40
0.0
 40
0.0
 40
0.025
 40
0.025
 40
0.025
 40
0.02500001
 40
0.05
 40
0.05
 40
0.05
 40
0.05000001
 40
0.075
 40
0.075
 40
0.075
 40
0.07500001
 40
0.1
 40
0.1
 40
0.1
 40
0.10000001
 40
0.125
 40
0.125
 40
0.125
 40
0.12500001
 40
0.15
 40
0.15
 40
0.15
 40
0.15000001
 40
0.175
 40
0.175
 40
0.175
 40
0.17500001
 40
0.2
 40
0.2
 40
0.2
 40
0.20000001
 40
0.225
 40
0.225
 40
0.225
 40
0.22500001
 40
0.25
 40
0.25
 40
0.25
 40
0.25000001
 40
0.275
 40
0.275
 40
0.275
 40
0.27500001
 40
0.3
 40
0.3
 40
0.3
 40
0.30000001
 40
0.325
 40
0.325
 40
0.325
 40
0.32500001
 40
0.35
 40
0.35
 40
0.35
 40
0.35000001
 40
0.375
 40
0.375
 40
0.375
 40
0.37500001
 40
0.4
 40
0.4
 40
0.4
 40
0.4000000100000001
 40
0.425
 40
0.425
 40
0.425
 40
0.42500001
 40
0.45
 40
0.45
 40
0.45
 40
0.4500000100000001
 40
0.475
 40
0.475
 40
0.475
 40
0.47500001
 40
0.5
 40
0.5
 40
0.5
 40
0.5000000100000001
 40
0.525
 40
0.525
 40
0.525
 40
0.5250000100000002
 40
0.55
 40
0.55
 40
0.55
 40
0.5500000100000002
 40
0.575
 40
0.575
 40
0.575
 40
0.5750000100000001
 40
0.6
 40
0.6
 40
0.6
 40
0.6000000100000001
 40
0.625
 40
0.625
 40
0.625
 40
0.6250000100000001
 40
0.65
 40
0.65
 40
0.65
 40
0.6500000100000002
 40
0.675
 40
0.675
 40
0.675
 40
0.6750000100000002
 40
0.7
 40
0.7
 40
0.7
 40
0.7000000100000001
 40
0.725
 40
0.725
 40
0.725
 40
0.7250000100000001
 40
0.75
 40
0.75
 40
0.75
 40
0.7500000100000001
 40
0.775
 40
0.775
 40
0.775
 40
0.7750000100000002
 40
0.8
 40
0.8
 40
0.8
 40
0.8000000100000001
 40
0.825
 40
0.825
 40
0.825
 40
0.8250000099999999
 40
0.85
 40
0.85
 40
0.85
 40
0.8500000100000001
 40
0.875
 40
0.875
 40
0.875
 40
0.8750000100000001
 40
0.9
 40
0.9
 40
0.9
 40
0.9000000100000001
 40
0.925
 40
0.925
 40
0.925
 40
0.9250000100000001
 40
0.95
 40
0.95
 40
0.95
 40
0.9500000099999999
 40
1.0
 40
1.0
 40
1.0
 40
1.0
 10
32.74430000000001
 20
8.239499999999999
 30
0.0
 10
32.74430000000001
 20
8.239499999999999
 30
0.0
 10
32.57350000000001
 20
8.3709
 30
0.0
 10
32.57350000000001
 20
8.3709
 30
0.0
 10
32.57350000000001
 20
8.3709
 30
0.0
 10
32.57350000000001
 20
8.3709
 30
0.0
 10
32.3895
 20
8.4891
 30
0.0
 10
32.3895
 20
8.4891
 30
0.0
 10
32.3895
 20
8.4891
 30
0.0
 10
32.3895
 20
8.4891
 30
0.0
 10
31.9953
 20
8.686299999999999
 30
0.0
 10
31.9953
 20
8.686299999999999
 30
0.0
 10
31.9953
 20
8.686299999999999
 30
0.0
 10
31.9953
 20
8.686299999999999
 30
0.0
 10
31.5682
 20
8.8505
 30
0.0
 10
31.5682
 20
8.8505
 30
0.0
 10
31.5682
 20
8.8505
 30
0.0
 10
31.5682
 20
8.8505
 30
0.0
 10
31.1017
 20
8.9885
 30
0.0
 10
31.1017
 20
8.9885
 30
0.0
 10
31.1017
 20
8.9885
 30
0.0
 10
31.1017
 20
8.9885
 30
0.0
 10
30.0832
 20
9.264499999999999
 30
0.0
 10
30.0832
 20
9.264499999999999
 30
0.0
 10
30.0832
 20
9.264499999999999
 30
0.0
 10
30.0832
 20
9.264499999999999
 30
0.0
 10
29.5313
 20
9.4221
 30
0.0
 10
29.5313
 20
9.4221
 30
0.0
 10
29.5313
 20
9.4221
 30
0.0
 10
29.5313
 20
9.4221
 30
0.0
 10
28.9597
 20
9.6193
 30
0.0
 10
28.9597
 20
9.6193
 30
0.0
 10
28.9597
 20
9.6193
 30
0.0
 10
28.9597
 20
9.6193
 30
0.0
 10
28.3617
 20
9.862399999999999
 30
0.0
 10
28.3617
 20
9.862399999999999
 30
0.0
 10
28.3617
 20
9.862399999999999
 30
0.0
 10
28.3617
 20
9.862399999999999
 30
0.0
 10
27.7507
 20
10.1646
 30
0.0
 10
27.7507
 20
10.1646
 30
0.0
 10
27.7507
 20
10.1646
 30
0.0
 10
27.7507
 20
10.1646
 30
0.0
 10
27.1265
 20
10.5457
 30
0.0
 10
27.1265
 20
10.5457
 30
0.0
 10
27.1265
 20
10.5457
 30
0.0
 10
27.1265
 20
10.5457
 30
0.0
 10
26.4826
 20
11.0122
 30
0.0
 10
26.4826
 20
11.0122
 30
0.0
 10
26.4826
 20
11.0122
 30
0.0
 10
26.4826
 20
11.0122
 30
0.0
 10
26.1606
 20
11.2882
 30
0.0
 10
26.1606
 20
11.2882
 30
0.0
 10
26.1606
 20
11.2882
 30
0.0
 10
26.1606
 20
11.2882
 30
0.0
 10
25.8386
 20
11.5904
 30
0.0
 10
25.8386
 20
11.5904
 30
0.0
 10
25.8386
 20
11.5904
 30
0.0
 10
25.8386
 20
11.5904
 30
0.0
 10
25.1816
 20
12.2803
 30
0.0
 10
25.1816
 20
12.2803
 30
0.0
 10
25.1816
 20
12.2803
 30
0.0
 10
25.1816
 20
12.2803
 30
0.0
 10
24.5245
 20
13.1016
 30
0.0
 10
24.5245
 20
13.1016
 30
0.0
 10
24.5245
 20
13.1016
 30
0.0
 10
24.5245
 20
13.1016
 30
0.0
 10
24.1894
 20
13.5616
 30
0.0
 10
24.1894
 20
13.5616
 30
0.0
 10
24.1894
 20
13.5616
 30
0.0
 10
24.1894
 20
13.5616
 30
0.0
 10
23.8609
 20
14.0675
 30
0.0
 10
23.8609
 20
14.0675
 30
0.0
 10
23.8609
 20
14.0675
 30
0.0
 10
23.8609
 20
14.0675
 30
0.0
 10
24.7348
 20
13.9164
 30
0.0
 10
24.7348
 20
13.9164
 30
0.0
 10
24.7348
 20
13.9164
 30
0.0
 10
24.7348
 20
13.9164
 30
0.0
 10
25.5101
 20
13.8375
 30
0.0
 10
25.5101
 20
13.8375
 30
0.0
 10
25.5101
 20
13.8375
 30
0.0
 10
25.5101
 20
13.8375
 30
0.0
 10
26.2132
 20
13.785
 30
0.0
 10
26.2132
 20
13.785
 30
0.0
 10
26.2132
 20
13.785
 30
0.0
 10
26.2132
 20
13.785
 30
0.0
 10
26.8834
 20
13.7193
 30
0.0
 10
26.8834
 20
13.7193
 30
0.0
 10
26.8834
 20
13.7193
 30
0.0
 10
26.8834
 20
13.7193
 30
0.0
 10
27.5338
 20
13.6076
 30
0.0
 10
27.5338
 20
13.6076
 30
0.0
 10
27.5338
 20
13.6076
 30
0.0
 10
27.5338
 20
13.6076
 30
0.0
 10
27.8624
 20
13.5156
 30
0.0
 10
27.8624
 20
13.5156
 30
0.0
 10
27.8624
 20
13.5156
 30
0.0
 10
27.8624
 20
13.5156
 30
0.0
 10
28.204
 20
13.3907
 30
0.0
 10
28.204
 20
13.3907
 30
0.0
 10
28.204
 20
13.3907
 30
0.0
 10
28.204
 20
13.3907
 30
0.0
 10
28.5523
 20
13.2396
 30
0.0
 10
28.5523
 20
13.2396
 30
0.0
 10
28.5523
 20
13.2396
 30
0.0
 10
28.5523
 20
13.2396
 30
0.0
 10
28.9137
 20
13.0425
 30
0.0
 10
28.9137
 20
13.0425
 30
0.0
 10
28.9137
 20
13.0425
 30
0.0
 10
28.9137
 20
13.0425
 30
0.0
 10
29.2947
 20
12.806
 30
0.0
 10
29.2947
 20
12.806
 30
0.0
 10
29.2947
 20
12.806
 30
0.0
 10
29.2947
 20
12.806
 30
0.0
 10
29.6956
 20
12.5169
 30
0.0
 10
29.6956
 20
12.5169
 30
0.0
 10
29.6956
 20
12.5169
 30
0.0
 10
29.6956
 20
12.5169
 30
0.0
 10
29.9584
 20
12.3
 30
0.0
 10
29.9584
 20
12.3
 30
0.0
 10
29.9584
 20
12.3
 30
0.0
 10
29.9584
 20
12.3
 30
0.0
 10
30.208
 20
12.0635
 30
0.0
 10
30.208
 20
12.0635
 30
0.0
 10
30.208
 20
12.0635
 30
0.0
 10
30.208
 20
12.0635
 30
0.0
 10
30.4314
 20
11.8138
 30
0.0
 10
30.4314
 20
11.8138
 30
0.0
 10
30.4314
 20
11.8138
 30
0.0
 10
30.4314
 20
11.8138
 30
0.0
 10
30.6417
 20
11.5576
 30
0.0
 10
30.6417
 20
11.5576
 30
0.0
 10
30.6417
 20
11.5576
 30
0.0
 10
30.6417
 20
11.5576
 30
0.0
 10
31.0228
 20
11.0122
 30
0.0
 10
31.0228
 20
11.0122
 30
0.0
 10
31.0228
 20
11.0122
 30
0.0
 10
31.0228
 20
11.0122
 30
0.0
 10
31.371
 20
10.4406
 30
0.0
 10
31.371
 20
10.4406
 30
0.0
 10
31.371
 20
10.4406
 30
0.0
 10
31.371
 20
10.4406
 30
0.0
 10
32.0215
 20
9.290699999999999
 30
0.0
 10
32.0215
 20
9.290699999999999
 30
0.0
 10
32.0215
 20
9.290699999999999
 30
0.0
 10
32.0215
 20
9.290699999999999
 30
0.0
 10
32.3632
 20
8.7454
 30
0.0
 10
32.3632
 20
8.7454
 30
0.0
 10
32.3632
 20
8.7454
 30
0.0
 10
32.3632
 20
8.7454
 30
0.0
 10
32.5012
 20
8.548299999999999
 30
0.0
 10
32.5012
 20
8.548299999999999
 30
0.0
 10
32.5012
 20
8.548299999999999
 30
0.0
 10
32.5012
 20
8.548299999999999
 30
0.0
 10
32.74430000000001
 20
8.239499999999999
 30
0.0
 10
32.74430000000001
 20
8.239499999999999
 30
0.0
  0
SPLINE
  5
7B
330
1F
100
AcDbEntity
  8
Layer 1
370
     5
100
AcDbSpline
210
0.0
220
0.0
230
1.0
 70
    11
 71
     3
 72
   120
 73
   116
 74
     0
 42
0.000000001
 43
0.0000000001
 40
0.0
 40
0.0
 40
0.0
 40
0.0
 40
0.0333333333333333
 40
0.0333333333333333
 40
0.0333333333333333
 40
0.0333333433333333
 40
0.0666666666666667
 40
0.0666666666666667
 40
0.0666666666666667
 40
0.0666666766666667
 40
0.1
 40
0.1
 40
0.1
 40
0.10000001
 40
0.1333333333333333
 40
0.1333333333333333
 40
0.1333333333333333
 40
0.1333333433333333
 40
0.1666666666666667
 40
0.1666666666666667
 40
0.1666666666666667
 40
0.1666666766666667
 40
0.2
 40
0.2
 40
0.2
 40
0.20000001
 40
0.2333333333333333
 40
0.2333333333333333
 40
0.2333333333333333
 40
0.2333333433333333
 40
0.2666666666666667
 40
0.2666666666666667
 40
0.2666666666666667
 40
0.2666666766666667
 40
0.3
 40
0.3
 40
0.3
 40
0.30000001
 40
0.3333333333333333
 40
0.3333333333333333
 40
0.3333333333333333
 40
0.3333333433333333
 40
0.3666666666666666
 40
0.3666666666666666
 40
0.3666666666666666
 40
0.3666666766666666
 40
0.4
 40
0.4
 40
0.4
 40
0.4000000100000001
 40
0.4333333333333333
 40
0.4333333333333333
 40
0.4333333333333333
 40
0.4333333433333334
 40
0.4666666666666667
 40
0.4666666666666667
 40
0.4666666666666667
 40
0.4666666766666667
 40
0.5
 40
0.5
 40
0.5
 40
0.5000000100000001
 40
0.5333333333333333
 40
0.5333333333333333
 40
0.5333333333333333
 40
0.5333333433333334
 40
0.5666666666666666
 40
0.5666666666666666
 40
0.5666666666666666
 40
0.5666666766666668
 40
0.6
 40
0.6
 40
0.6
 40
0.6000000100000001
 40
0.6333333333333333
 40
0.6333333333333333
 40
0.6333333333333333
 40
0.6333333433333334
 40
0.6666666666666666
 40
0.6666666666666666
 40
0.6666666666666666
 40
0.6666666766666668
 40
0.7
 40
0.7
 40
0.7
 40
0.7000000100000001
 40
0.7333333333333333
 40
0.7333333333333333
 40
0.7333333333333333
 40
0.7333333433333334
 40
0.7666666666666667
 40
0.7666666666666667
 40
0.7666666666666667
 40
0.7666666766666668
 40
0.8
 40
0.8
 40
0.8
 40
0.8000000100000001
 40
0.8333333333333333
 40
0.8333333333333333
 40
0.8333333333333333
 40
0.8333333433333333
 40
0.8666666666666667
 40
0.8666666666666667
 40
0.8666666666666667
 40
0.8666666766666667
 40
0.9
 40
0.9
 40
0.9
 40
0.9000000100000001
 40
0.9333333333333332
 40
0.9333333333333332
 40
0.9333333333333332
 40
0.9333333433333333
 40
1.0
 40
1.0
 40
1.0
 40
1.0
 10
24.7151
 20
5.355
 30
0.0
 10
24.7151
 20
5.355
 30
0.0
 10
24.1172
 20
5.8346
 30
0.0
 10
24.1172
 20
5.8346
 30
0.0
 10
24.1172
 20
5.8346
 30
0.0
 10
24.1172
 20
5.8346
 30
0.0
 10
23.6112
 20
6.333999999999999
 30
0.0
 10
23.6112
 20
6.333999999999999
 30
0.0
 10
23.6112
 20
6.333999999999999
 30
0.0
 10
23.6112
 20
6.333999999999999
 30
0.0
 10
23.1907
 20
6.8531
 30
0.0
 10
23.1907
 20
6.8531
 30
0.0
 10
23.1907
 20
6.8531
 30
0.0
 10
23.1907
 20
6.8531
 30
0.0
 10
22.8491
 20
7.391799999999999
 30
0.0
 10
22.8491
 20
7.391799999999999
 30
0.0
 10
22.8491
 20
7.391799999999999
 30
0.0
 10
22.8491
 20
7.391799999999999
 30
0.0
 10
22.7045
 20
7.667799999999999
 30
0.0
 10
22.7045
 20
7.667799999999999
 30
0.0
 10
22.7045
 20
7.667799999999999
 30
0.0
 10
22.7045
 20
7.667799999999999
 30
0.0
 10
22.5797
 20
7.9438
 30
0.0
 10
22.5797
 20
7.9438
 30
0.0
 10
22.5797
 20
7.9438
 30
0.0
 10
22.5797
 20
7.9438
 30
0.0
 10
22.376
 20
8.515399999999999
 30
0.0
 10
22.376
 20
8.515399999999999
 30
0.0
 10
22.376
 20
8.515399999999999
 30
0.0
 10
22.376
 20
8.515399999999999
 30
0.0
 10
22.238
 20
9.1067
 30
0.0
 10
22.238
 20
9.1067
 30
0.0
 10
22.238
 20
9.1067
 30
0.0
 10
22.238
 20
9.1067
 30
0.0
 10
22.1526
 20
9.711199999999999
 30
0.0
 10
22.1526
 20
9.711199999999999
 30
0.0
 10
22.1526
 20
9.711199999999999
 30
0.0
 10
22.1526
 20
9.711199999999999
 30
0.0
 10
22.1131
 20
10.3223
 30
0.0
 10
22.1131
 20
10.3223
 30
0.0
 10
22.1131
 20
10.3223
 30
0.0
 10
22.1131
 20
10.3223
 30
0.0
 10
22.1131
 20
10.9531
 30
0.0
 10
22.1131
 20
10.9531
 30
0.0
 10
22.1131
 20
10.9531
 30
0.0
 10
22.1131
 20
10.9531
 30
0.0
 10
22.146
 20
11.5839
 30
0.0
 10
22.146
 20
11.5839
 30
0.0
 10
22.146
 20
11.5839
 30
0.0
 10
22.146
 20
11.5839
 30
0.0
 10
22.2117
 20
12.2344
 30
0.0
 10
22.2117
 20
12.2344
 30
0.0
 10
22.2117
 20
12.2344
 30
0.0
 10
22.2117
 20
12.2344
 30
0.0
 10
22.2971
 20
12.8848
 30
0.0
 10
22.2971
 20
12.8848
 30
0.0
 10
22.2971
 20
12.8848
 30
0.0
 10
22.2971
 20
12.8848
 30
0.0
 10
22.4023
 20
13.5419
 30
0.0
 10
22.4023
 20
13.5419
 30
0.0
 10
22.4023
 20
13.5419
 30
0.0
 10
22.4023
 20
13.5419
 30
0.0
 10
22.6256
 20
14.8757
 30
0.0
 10
22.6256
 20
14.8757
 30
0.0
 10
22.6256
 20
14.8757
 30
0.0
 10
22.6256
 20
14.8757
 30
0.0
 10
23.1907
 20
14.1464
 30
0.0
 10
23.1907
 20
14.1464
 30
0.0
 10
23.1907
 20
14.1464
 30
0.0
 10
23.1907
 20
14.1464
 30
0.0
 10
23.6638
 20
13.4827
 30
0.0
 10
23.6638
 20
13.4827
 30
0.0
 10
23.6638
 20
13.4827
 30
0.0
 10
23.6638
 20
13.4827
 30
0.0
 10
24.0515
 20
12.8651
 30
0.0
 10
24.0515
 20
12.8651
 30
0.0
 10
24.0515
 20
12.8651
 30
0.0
 10
24.0515
 20
12.8651
 30
0.0
 10
24.3668
 20
12.2869
 30
0.0
 10
24.3668
 20
12.2869
 30
0.0
 10
24.3668
 20
12.2869
 30
0.0
 10
24.3668
 20
12.2869
 30
0.0
 10
24.6165
 20
11.7481
 30
0.0
 10
24.6165
 20
11.7481
 30
0.0
 10
24.6165
 20
11.7481
 30
0.0
 10
24.6165
 20
11.7481
 30
0.0
 10
24.8005
 20
11.2291
 30
0.0
 10
24.8005
 20
11.2291
 30
0.0
 10
24.8005
 20
11.2291
 30
0.0
 10
24.8005
 20
11.2291
 30
0.0
 10
24.9319
 20
10.7231
 30
0.0
 10
24.9319
 20
10.7231
 30
0.0
 10
24.9319
 20
10.7231
 30
0.0
 10
24.9319
 20
10.7231
 30
0.0
 10
25.0107
 20
10.2237
 30
0.0
 10
25.0107
 20
10.2237
 30
0.0
 10
25.0107
 20
10.2237
 30
0.0
 10
25.0107
 20
10.2237
 30
0.0
 10
25.0502
 20
9.7178
 30
0.0
 10
25.0502
 20
9.7178
 30
0.0
 10
25.0502
 20
9.7178
 30
0.0
 10
25.0502
 20
9.7178
 30
0.0
 10
25.0568
 20
9.205299999999999
 30
0.0
 10
25.0568
 20
9.205299999999999
 30
0.0
 10
25.0568
 20
9.205299999999999
 30
0.0
 10
25.0568
 20
9.205299999999999
 30
0.0
 10
24.9845
 20
8.101499999999999
 30
0.0
 10
24.9845
 20
8.101499999999999
 30
0.0
 10
24.9845
 20
8.101499999999999
 30
0.0
 10
24.9845
 20
8.101499999999999
 30
0.0
 10
24.8531
 20
6.8399
 30
0.0
 10
24.8531
 20
6.8399
 30
0.0
 10
24.8531
 20
6.8399
 30
0.0
 10
24.8531
 20
6.8399
 30
0.0
 10
24.7151
 20
5.355
 30
0.0
 10
24.7151
 20
5.355
 30
0.0
  0
SPLINE
  5
7C
330
1F
100
AcDbEntity
  8
Layer 1
370
     5
100
AcDbSpline
210
0.0
220
0.0
230
1.0
 70
    11
 71
     3
 72
   208
 73
   204
 74
     0
 42
0.000000001
 43
0.0000000001
 40
0.0
 40
0.0
 40
0.0
 40
0.0
 40
0.0192307692307692
 40
0.0192307692307692
 40
0.0192307692307692
 40
0.0192307792307692
 40
0.0384615384615385
 40
0.0384615384615385
 40
0.0384615384615385
 40
0.0384615484615385
 40
0.0576923076923077
 40
0.0576923076923077
 40
0.0576923076923077
 40
0.0576923176923077
 40
0.0769230769230769
 40
0.0769230769230769
 40
0.0769230769230769
 40
0.0769230869230769
 40
0.0961538461538462
 40
0.0961538461538462
 40
0.0961538461538462
 40
0.0961538561538462
 40
0.1153846153846154
 40
0.1153846153846154
 40
0.1153846153846154
 40
0.1153846253846154
 40
0.1346153846153846
 40
0.1346153846153846
 40
0.1346153846153846
 40
0.1346153946153846
 40
0.1538461538461539
 40
0.1538461538461539
 40
0.1538461538461539
 40
0.1538461638461539
 40
0.1730769230769231
 40
0.1730769230769231
 40
0.1730769230769231
 40
0.1730769330769231
 40
0.1923076923076923
 40
0.1923076923076923
 40
0.1923076923076923
 40
0.1923077023076923
 40
0.2115384615384615
 40
0.2115384615384615
 40
0.2115384615384615
 40
0.2115384715384615
 40
0.2307692307692308
 40
0.2307692307692308
 40
0.2307692307692308
 40
0.2307692407692308
 40
0.25
 40
0.25
 40
0.25
 40
0.25000001
 40
0.2692307692307692
 40
0.2692307692307692
 40
0.2692307692307692
 40
0.2692307792307692
 40
0.2884615384615384
 40
0.2884615384615384
 40
0.2884615384615384
 40
0.2884615484615384
 40
0.3076923076923077
 40
0.3076923076923077
 40
0.3076923076923077
 40
0.3076923176923077
 40
0.3269230769230769
 40
0.3269230769230769
 40
0.3269230769230769
 40
0.3269230869230769
 40
0.3461538461538461
 40
0.3461538461538461
 40
0.3461538461538461
 40
0.3461538561538461
 40
0.3653846153846154
 40
0.3653846153846154
 40
0.3653846153846154
 40
0.3653846253846154
 40
0.3846153846153846
 40
0.3846153846153846
 40
0.3846153846153846
 40
0.3846153946153846
 40
0.403846153846154
 40
0.403846153846154
 40
0.403846153846154
 40
0.403846163846154
 40
0.4230769230769231
 40
0.4230769230769231
 40
0.4230769230769231
 40
0.4230769330769232
 40
0.4423076923076924
 40
0.4423076923076924
 40
0.4423076923076924
 40
0.4423077023076923
 40
0.4615384615384616
 40
0.4615384615384616
 40
0.4615384615384616
 40
0.4615384715384617
 40
0.4807692307692308
 40
0.4807692307692308
 40
0.4807692307692308
 40
0.4807692407692308
 40
0.5
 40
0.5
 40
0.5
 40
0.5000000100000001
 40
0.5192307692307693
 40
0.5192307692307693
 40
0.5192307692307693
 40
0.5192307792307693
 40
0.5384615384615385
 40
0.5384615384615385
 40
0.5384615384615385
 40
0.5384615484615385
 40
0.5576923076923077
 40
0.5576923076923077
 40
0.5576923076923077
 40
0.5576923176923078
 40
0.5769230769230769
 40
0.5769230769230769
 40
0.5769230769230769
 40
0.576923086923077
 40
0.5961538461538462
 40
0.5961538461538462
 40
0.5961538461538462
 40
0.5961538561538462
 40
0.6153846153846155
 40
0.6153846153846155
 40
0.6153846153846155
 40
0.6153846253846155
 40
0.6346153846153846
 40
0.6346153846153846
 40
0.6346153846153846
 40
0.6346153946153846
 40
0.6538461538461539
 40
0.6538461538461539
 40
0.6538461538461539
 40
0.653846163846154
 40
0.6730769230769232
 40
0.6730769230769232
 40
0.6730769230769232
 40
0.6730769330769232
 40
0.6923076923076924
 40
0.6923076923076924
 40
0.6923076923076924
 40
0.6923077023076924
 40
0.7115384615384616
 40
0.7115384615384616
 40
0.7115384615384616
 40
0.7115384715384617
 40
0.7307692307692308
 40
0.7307692307692308
 40
0.7307692307692308
 40
0.7307692407692308
 40
0.75
 40
0.75
 40
0.75
 40
0.7500000100000001
 40
0.7692307692307693
 40
0.7692307692307693
 40
0.7692307692307693
 40
0.7692307792307693
 40
0.7884615384615385
 40
0.7884615384615385
 40
0.7884615384615385
 40
0.7884615484615385
 40
0.8076923076923076
 40
0.8076923076923076
 40
0.8076923076923076
 40
0.8076923176923077
 40
0.8269230769230768
 40
0.8269230769230768
 40
0.8269230769230768
 40
0.8269230869230769
 40
0.8461538461538461
 40
0.8461538461538461
 40
0.8461538461538461
 40
0.8461538561538461
 40
0.8653846153846153
 40
0.8653846153846153
 40
0.8653846153846153
 40
0.8653846253846154
 40
0.8846153846153846
 40
0.8846153846153846
 40
0.8846153846153846
 40
0.8846153946153846
 40
0.903846153846154
 40
0.903846153846154
 40
0.903846153846154
 40
0.9038461638461539
 40
0.9230769230769231
 40
0.9230769230769231
 40
0.9230769230769231
 40
0.9230769330769232
 40
0.9423076923076923
 40
0.9423076923076923
 40
0.9423076923076923
 40
0.9423077023076924
 40
0.9615384615384614
 40
0.9615384615384614
 40
0.9615384615384614
 40
0.9615384715384616
 40
1.0
 40
1.0
 40
1.0
 40
1.0
 10
34.1833
 20
0.0
 30
0.0
 10
34.1833
 20
0.0
 30
0.0
 10
33.1319
 20
0.3877
 30
0.0
 10
33.1319
 20
0.3877
 30
0.0
 10
33.1319
 20
0.3877
 30
0.0
 10
33.1319
 20
0.3877
 30
0.0
 10
32.0741
 20
0.8213
 30
0.0
 10
32.0741
 20
0.8213
 30
0.0
 10
32.0741
 20
0.8213
 30
0.0
 10
32.0741
 20
0.8213
 30
0.0
 10
31.0425
 20
1.3075
 30
0.0
 10
31.0425
 20
1.3075
 30
0.0
 10
31.0425
 20
1.3075
 30
0.0
 10
31.0425
 20
1.3075
 30
0.0
 10
30.0438
 20
1.865999999999999
 30
0.0
 10
30.0438
 20
1.865999999999999
 30
0.0
 10
30.0438
 20
1.865999999999999
 30
0.0
 10
30.0438
 20
1.865999999999999
 30
0.0
 10
29.0977
 20
2.4902
 30
0.0
 10
29.0977
 20
2.4902
 30
0.0
 10
29.0977
 20
2.4902
 30
0.0
 10
29.0977
 20
2.4902
 30
0.0
 10
28.6509
 20
2.838499999999999
 30
0.0
 10
28.6509
 20
2.838499999999999
 30
0.0
 10
28.6509
 20
2.838499999999999
 30
0.0
 10
28.6509
 20
2.838499999999999
 30
0.0
 10
28.2238
 20
3.206399999999999
 30
0.0
 10
28.2238
 20
3.206399999999999
 30
0.0
 10
28.2238
 20
3.206399999999999
 30
0.0
 10
28.2238
 20
3.206399999999999
 30
0.0
 10
27.8164
 20
3.5941
 30
0.0
 10
27.8164
 20
3.5941
 30
0.0
 10
27.8164
 20
3.5941
 30
0.0
 10
27.8164
 20
3.5941
 30
0.0
 10
27.4287
 20
4.014599999999999
 30
0.0
 10
27.4287
 20
4.014599999999999
 30
0.0
 10
27.4287
 20
4.014599999999999
 30
0.0
 10
27.4287
 20
4.014599999999999
 30
0.0
 10
27.0739
 20
4.454799999999999
 30
0.0
 10
27.0739
 20
4.454799999999999
 30
0.0
 10
27.0739
 20
4.454799999999999
 30
0.0
 10
27.0739
 20
4.454799999999999
 30
0.0
 10
26.7454
 20
4.921299999999999
 30
0.0
 10
26.7454
 20
4.921299999999999
 30
0.0
 10
26.7454
 20
4.921299999999999
 30
0.0
 10
26.7454
 20
4.921299999999999
 30
0.0
 10
26.5088
 20
5.322099999999999
 30
0.0
 10
26.5088
 20
5.322099999999999
 30
0.0
 10
26.5088
 20
5.322099999999999
 30
0.0
 10
26.5088
 20
5.322099999999999
 30
0.0
 10
26.3249
 20
5.729499999999999
 30
0.0
 10
26.3249
 20
5.729499999999999
 30
0.0
 10
26.3249
 20
5.729499999999999
 30
0.0
 10
26.3249
 20
5.729499999999999
 30
0.0
 10
26.1737
 20
6.136899999999999
 30
0.0
 10
26.1737
 20
6.136899999999999
 30
0.0
 10
26.1737
 20
6.136899999999999
 30
0.0
 10
26.1737
 20
6.136899999999999
 30
0.0
 10
26.062
 20
6.550799999999999
 30
0.0
 10
26.062
 20
6.550799999999999
 30
0.0
 10
26.062
 20
6.550799999999999
 30
0.0
 10
26.062
 20
6.550799999999999
 30
0.0
 10
25.97
 20
6.9648
 30
0.0
 10
25.97
 20
6.9648
 30
0.0
 10
25.97
 20
6.9648
 30
0.0
 10
25.97
 20
6.9648
 30
0.0
 10
25.9109
 20
7.3787
 30
0.0
 10
25.9109
 20
7.3787
 30
0.0
 10
25.9109
 20
7.3787
 30
0.0
 10
25.9109
 20
7.3787
 30
0.0
 10
25.8189
 20
8.2263
 30
0.0
 10
25.8189
 20
8.2263
 30
0.0
 10
25.8189
 20
8.2263
 30
0.0
 10
25.8189
 20
8.2263
 30
0.0
 10
25.7401
 20
9.086999999999999
 30
0.0
 10
25.7401
 20
9.086999999999999
 30
0.0
 10
25.7401
 20
9.086999999999999
 30
0.0
 10
25.7401
 20
9.086999999999999
 30
0.0
 10
25.6284
 20
9.9609
 30
0.0
 10
25.6284
 20
9.9609
 30
0.0
 10
25.6284
 20
9.9609
 30
0.0
 10
25.6284
 20
9.9609
 30
0.0
 10
25.543
 20
10.4077
 30
0.0
 10
25.543
 20
10.4077
 30
0.0
 10
25.543
 20
10.4077
 30
0.0
 10
25.543
 20
10.4077
 30
0.0
 10
25.4247
 20
10.8545
 30
0.0
 10
25.4247
 20
10.8545
 30
0.0
 10
25.4247
 20
10.8545
 30
0.0
 10
25.4247
 20
10.8545
 30
0.0
 10
25.2802
 20
11.3079
 30
0.0
 10
25.2802
 20
11.3079
 30
0.0
 10
25.2802
 20
11.3079
 30
0.0
 10
25.2802
 20
11.3079
 30
0.0
 10
25.0896
 20
11.7678
 30
0.0
 10
25.0896
 20
11.7678
 30
0.0
 10
25.0896
 20
11.7678
 30
0.0
 10
25.0896
 20
11.7678
 30
0.0
 10
25.5167
 20
11.2882
 30
0.0
 10
25.5167
 20
11.2882
 30
0.0
 10
25.5167
 20
11.2882
 30
0.0
 10
25.5167
 20
11.2882
 30
0.0
 10
25.9306
 20
10.8808
 30
0.0
 10
25.9306
 20
10.8808
 30
0.0
 10
25.9306
 20
10.8808
 30
0.0
 10
25.9306
 20
10.8808
 30
0.0
 10
26.3315
 20
10.526
 30
0.0
 10
26.3315
 20
10.526
 30
0.0
 10
26.3315
 20
10.526
 30
0.0
 10
26.3315
 20
10.526
 30
0.0
 10
26.7257
 20
10.2237
 30
0.0
 10
26.7257
 20
10.2237
 30
0.0
 10
26.7257
 20
10.2237
 30
0.0
 10
26.7257
 20
10.2237
 30
0.0
 10
27.1133
 20
9.9609
 30
0.0
 10
27.1133
 20
9.9609
 30
0.0
 10
27.1133
 20
9.9609
 30
0.0
 10
27.1133
 20
9.9609
 30
0.0
 10
27.4944
 20
9.730999999999999
 30
0.0
 10
27.4944
 20
9.730999999999999
 30
0.0
 10
27.4944
 20
9.730999999999999
 30
0.0
 10
27.4944
 20
9.730999999999999
 30
0.0
 10
28.2369
 20
9.330099999999999
 30
0.0
 10
28.2369
 20
9.330099999999999
 30
0.0
 10
28.2369
 20
9.330099999999999
 30
0.0
 10
28.2369
 20
9.330099999999999
 30
0.0
 10
28.9728
 20
8.9556
 30
0.0
 10
28.9728
 20
8.9556
 30
0.0
 10
28.9728
 20
8.9556
 30
0.0
 10
28.9728
 20
8.9556
 30
0.0
 10
29.3408
 20
8.751899999999999
 30
0.0
 10
29.3408
 20
8.751899999999999
 30
0.0
 10
29.3408
 20
8.751899999999999
 30
0.0
 10
29.3408
 20
8.751899999999999
 30
0.0
 10
29.7087
 20
8.528499999999999
 30
0.0
 10
29.7087
 20
8.528499999999999
 30
0.0
 10
29.7087
 20
8.528499999999999
 30
0.0
 10
29.7087
 20
8.528499999999999
 30
0.0
 10
30.0766
 20
8.2789
 30
0.0
 10
30.0766
 20
8.2789
 30
0.0
 10
30.0766
 20
8.2789
 30
0.0
 10
30.0766
 20
8.2789
 30
0.0
 10
30.4512
 20
7.9832
 30
0.0
 10
30.4512
 20
7.9832
 30
0.0
 10
30.4512
 20
7.9832
 30
0.0
 10
30.4512
 20
7.9832
 30
0.0
 10
30.8323
 20
7.6481
 30
0.0
 10
30.8323
 20
7.6481
 30
0.0
 10
30.8323
 20
7.6481
 30
0.0
 10
30.8323
 20
7.6481
 30
0.0
 10
31.2199
 20
7.2538
 30
0.0
 10
31.2199
 20
7.2538
 30
0.0
 10
31.2199
 20
7.2538
 30
0.0
 10
31.2199
 20
7.2538
 30
0.0
 10
31.5485
 20
6.8531
 30
0.0
 10
31.5485
 20
6.8531
 30
0.0
 10
31.5485
 20
6.8531
 30
0.0
 10
31.5485
 20
6.8531
 30
0.0
 10
31.8375
 20
6.439099999999999
 30
0.0
 10
31.8375
 20
6.439099999999999
 30
0.0
 10
31.8375
 20
6.439099999999999
 30
0.0
 10
31.8375
 20
6.439099999999999
 30
0.0
 10
32.0872
 20
6.0121
 30
0.0
 10
32.0872
 20
6.0121
 30
0.0
 10
32.0872
 20
6.0121
 30
0.0
 10
32.0872
 20
6.0121
 30
0.0
 10
32.2975
 20
5.565199999999999
 30
0.0
 10
32.2975
 20
5.565199999999999
 30
0.0
 10
32.2975
 20
5.565199999999999
 30
0.0
 10
32.2975
 20
5.565199999999999
 30
0.0
 10
32.4815
 20
5.105299999999999
 30
0.0
 10
32.4815
 20
5.105299999999999
 30
0.0
 10
32.4815
 20
5.105299999999999
 30
0.0
 10
32.4815
 20
5.105299999999999
 30
0.0
 10
32.6391
 20
4.6454
 30
0.0
 10
32.6391
 20
4.6454
 30
0.0
 10
32.6391
 20
4.6454
 30
0.0
 10
32.6391
 20
4.6454
 30
0.0
 10
32.91510000000001
 20
3.6926
 30
0.0
 10
32.91510000000001
 20
3.6926
 30
0.0
 10
32.91510000000001
 20
3.6926
 30
0.0
 10
32.91510000000001
 20
3.6926
 30
0.0
 10
33.1582
 20
2.7399
 30
0.0
 10
33.1582
 20
2.7399
 30
0.0
 10
33.1582
 20
2.7399
 30
0.0
 10
33.1582
 20
2.7399
 30
0.0
 10
33.4276
 20
1.7937
 30
0.0
 10
33.4276
 20
1.7937
 30
0.0
 10
33.4276
 20
1.7937
 30
0.0
 10
33.4276
 20
1.7937
 30
0.0
 10
33.5788
 20
1.327199999999999
 30
0.0
 10
33.5788
 20
1.327199999999999
 30
0.0
 10
33.5788
 20
1.327199999999999
 30
0.0
 10
33.5788
 20
1.327199999999999
 30
0.0
 10
33.7496
 20
0.8739
 30
0.0
 10
33.7496
 20
0.8739
 30
0.0
 10
33.7496
 20
0.8739
 30
0.0
 10
33.7496
 20
0.8739
 30
0.0
 10
33.9533
 20
0.4271
 30
0.0
 10
33.9533
 20
0.4271
 30
0.0
 10
33.9533
 20
0.4271
 30
0.0
 10
33.9533
 20
0.4271
 30
0.0
 10
34.1833
 20
0.0
 30
0.0
 10
34.1833
 20
0.0
 30
0.0
  0
ENDSEC
  0
SECTION
  2
OBJECTS
  0
DICTIONARY
  5
C
330
0
100
AcDbDictionary
281
     1
  3
ACAD_CIP_PREVIOUS_PRODUCT_INFO
350
C1
  3
ACAD_COLOR
350
BC
  3
ACAD_DETAILVIEWSTYLE
350
B8
  3
ACAD_GROUP
350
D
  3
ACAD_LAYOUT
350
1A
  3
ACAD_MATERIAL
350
43
  3
ACAD_MLEADERSTYLE
350
6B
  3
ACAD_MLINESTYLE
350
17
  3
ACAD_PLOTSETTINGS
350
19
  3
ACAD_PLOTSTYLENAME
350
E
  3
ACAD_SCALELIST
350
47
  3
ACAD_SECTIONVIEWSTYLE
350
B9
  3
ACAD_TABLESTYLE
350
69
  3
ACAD_VISUALSTYLE
350
2A
  3
ACDB_RECOMPOSE_DATA
350
D0
  3
AcDbVariableDictionary
350
7D
  0
SUN
  5
6D
330
29
100
AcDbSun
 90
        1
290
     1
 63
     7
421
 16777215
 40
1.0
291
     1
 91
  2455826
 92
 54000000
292
     0
 70
     0
 71
   256
280
     1
  0
DICTIONARY
  5
C2
330
10
100
AcDbDictionary
280
     1
281
     1
  3
ADSK_XREC_LAYER_RECONCILED
360
C3
  0
DICTIONARY
  5
C4
330
6F
100
AcDbDictionary
280
     1
281
     1
  3
ADSK_XREC_LAYER_RECONCILED
360
C5
  0
XRECORD
  5
C1
102
{ACAD_REACTORS
330
C
102
}
330
C
100
AcDbXrecord
280
     1
300
ACD
300
2016
300
DSADV_F_S
  0
DICTIONARY
  5
BC
102
{ACAD_REACTORS
330
C
102
}
330
C
100
AcDbDictionary
281
     1
  0
DICTIONARY
  5
B8
102
{ACAD_REACTORS
330
C
102
}
330
C
100
AcDbDictionary
281
     1
  3
Imperial24
350
BE
  0
DICTIONARY
  5
D
102
{ACAD_REACTORS
330
C
102
}
330
C
100
AcDbDictionary
281
     1
  0
DICTIONARY
  5
1A
102
{ACAD_REACTORS
330
C
102
}
330
C
100
AcDbDictionary
281
     1
  3
Layout1
350
1E
  3
Layout2
350
26
  3
Model
350
22
  0
DICTIONARY
  5
43
102
{ACAD_REACTORS
330
C
102
}
330
C
100
AcDbDictionary
281
     1
  3
ByBlock
350
45
  3
ByLayer
350
44
  3
Global
350
46
  0
DICTIONARY
  5
6B
102
{ACAD_REACTORS
330
C
102
}
330
C
100
AcDbDictionary
281
     1
  3
Standard
350
6C
  0
DICTIONARY
  5
17
102
{ACAD_REACTORS
330
C
102
}
330
C
100
AcDbDictionary
281
     1
  3
Standard
350
18
  0
DICTIONARY
  5
19
102
{ACAD_REACTORS
330
C
102
}
330
C
100
AcDbDictionary
281
     1
  0
ACDBDICTIONARYWDFLT
  5
E
102
{ACAD_REACTORS
330
C
102
}
330
C
100
AcDbDictionary
281
     1
  3
Normal
350
F
100
AcDbDictionaryWithDefault
340
F
  0
DICTIONARY
  5
47
102
{ACAD_REACTORS
330
C
102
}
330
C
100
AcDbDictionary
281
     1
  3
A0
350
48
  3
A1
350
49
  3
A2
350
4A
  3
A3
350
4B
  3
A4
350
4C
  3
A5
350
4D
  3
A6
350
4E
  3
A7
350
4F
  3
A8
350
50
  3
A9
350
51
  3
B0
350
52
  3
B1
350
53
  3
B2
350
54
  3
B3
350
55
  3
B4
350
56
  3
B5
350
57
  3
B6
350
58
  3
B7
350
59
  3
B8
350
5A
  3
B9
350
5B
  3
C0
350
5C
  3
C1
350
5D
  3
C2
350
5E
  3
C3
350
5F
  3
C4
350
60
  3
C5
350
61
  3
C6
350
62
  3
C7
350
63
  3
C8
350
64
  3
C9
350
65
  3
D0
350
66
  3
D1
350
67
  3
D2
350
68
  0
DICTIONARY
  5
B9
102
{ACAD_REACTORS
330
C
102
}
330
C
100
AcDbDictionary
281
     1
  3
Imperial24
350
BD
  0
DICTIONARY
  5
69
102
{ACAD_REACTORS
330
C
102
}
330
C
100
AcDbDictionary
281
     1
  3
Standard
350
6A
  0
DICTIONARY
  5
2A
102
{ACAD_REACTORS
330
C
102
}
330
C
100
AcDbDictionary
281
     1
  3
2dWireframe
350
2F
  3
Basic
350
32
  3
Brighten
350
36
  3
ColorChange
350
3A
  3
Conceptual
350
34
  3
Dim
350
35
  3
EdgeColorOff
350
3D
  3
Facepattern
350
39
  3
Flat
350
2B
  3
FlatWithEdges
350
2C
  3
Gouraud
350
2D
  3
GouraudWithEdges
350
2E
  3
Hidden
350
31
  3
JitterOff
350
3B
  3
Linepattern
350
38
  3
OverhangOff
350
3C
  3
Realistic
350
33
  3
Shaded
350
42
  3
Shaded with edges
350
41
  3
Shades of Gray
350
3E
  3
Sketchy
350
3F
  3
Thicken
350
37
  3
Wireframe
350
30
  3
X-Ray
350
40
  0
XRECORD
  5
D0
102
{ACAD_REACTORS
330
C
102
}
330
C
100
AcDbXrecord
280
     1
 90
        1
330
6A
330
BD
330
BE
  0
DICTIONARY
  5
7D
102
{ACAD_REACTORS
330
C
102
}
330
C
100
AcDbDictionary
281
     1
  3
CANNOSCALE
350
7E
  3
CMLEADERSTYLE
350
B7
  3
CTABLESTYLE
350
B6
  3
CVIEWDETAILSTYLE
350
C6
  3
CVIEWSECTIONSTYLE
350
C7
  3
LAYEREVAL
350
C8
  3
LAYERNOTIFY
350
C9
  0
XRECORD
  5
C3
102
{ACAD_REACTORS
330
C2
102
}
330
C2
100
AcDbXrecord
280
     1
290
     1
  0
XRECORD
  5
C5
102
{ACAD_REACTORS
330
C4
102
}
330
C4
100
AcDbXrecord
280
     1
290
     1
  0
ACDBDETAILVIEWSTYLE
  5
BE
102
{ACAD_XDICTIONARY
360
CE
102
}
102
{ACAD_REACTORS
330
B8
102
}
330
B8
100
AcDbModelDocViewStyle
 70
     0
  3
Imperial24
290
     0
100
AcDbDetailViewStyle
 70
     0
 71
     0
 90
        3
 71
     1
340
11
 62
   256
 40
0.24
340
0
 62
   256
 40
0.24
300

 40
0.36
280
     3
 71
     2
340
16
 90
       25
 62
   256
 71
     3
340
11
 62
   256
 40
0.24
 90
        1
 40
0.75
 90
        1
300
%<\AcVar ViewType \f "%tc1">% %<\AcVar ViewDetailId>%\PSCALE %<\AcVar ViewScale \f "%sn">%
 71
     4
340
16
 90
       25
 62
   256
340
16
 90
       25
 62
   256
280
     0
  0
LAYOUT
  5
1E
102
{ACAD_REACTORS
330
1A
102
}
330
1A
100
AcDbPlotSettings
  1

  2
none_device
  4

  6

 40
0.0
 41
0.0
 42
0.0
 43
0.0
 44
0.0
 45
0.0
 46
0.0
 47
0.0
 48
0.0
 49
0.0
140
0.0
141
0.0
142
1.0
143
1.0
 70
   688
 72
     0
 73
     0
 74
     5
  7

 75
    16
147
1.0
 76
     0
 77
     2
 78
   300
148
0.0
149
0.0
100
AcDbLayout
  1
Layout1
 70
     1
 71
     1
 10
0.0
 20
0.0
 11
12.0
 21
9.0
 12
0.0
 22
0.0
 32
0.0
 14
1.000000000000000E+20
 24
1.000000000000000E+20
 34
1.000000000000000E+20
 15
-1.000000000000000E+20
 25
-1.000000000000000E+20
 35
-1.000000000000000E+20
146
0.0
 13
0.0
 23
0.0
 33
0.0
 16
1.0
 26
0.0
 36
0.0
 17
0.0
 27
1.0
 37
0.0
 76
     0
330
1B
  0
LAYOUT
  5
26
102
{ACAD_REACTORS
330
1A
102
}
330
1A
100
AcDbPlotSettings
  1

  2
none_device
  4

  6

 40
0.0
 41
0.0
 42
0.0
 43
0.0
 44
0.0
 45
0.0
 46
0.0
 47
0.0
 48
0.0
 49
0.0
140
0.0
141
0.0
142
1.0
143
1.0
 70
   688
 72
     0
 73
     0
 74
     5
  7

 75
    16
147
1.0
 76
     0
 77
     2
 78
   300
148
0.0
149
0.0
100
AcDbLayout
  1
Layout2
 70
     1
 71
     2
 10
0.0
 20
0.0
 11
0.0
 21
0.0
 12
0.0
 22
0.0
 32
0.0
 14
0.0
 24
0.0
 34
0.0
 15
0.0
 25
0.0
 35
0.0
146
0.0
 13
0.0
 23
0.0
 33
0.0
 16
1.0
 26
0.0
 36
0.0
 17
0.0
 27
1.0
 37
0.0
 76
     0
330
23
  0
LAYOUT
  5
22
102
{ACAD_REACTORS
330
1A
102
}
330
1A
100
AcDbPlotSettings
  1

  2
none_device
  4
Letter_(8.50_x_11.00_Inches)
  6

 40
6.349999999999999
 41
6.349999999999999
 42
6.350005079999999
 43
6.350005079999999
 44
215.9
 45
279.4
 46
0.0
 47
0.0
 48
0.0
 49
0.0
140
0.0
141
0.0
142
1.0
143
1.0
 70
  1712
 72
     0
 73
     0
 74
     0
  7

 75
     0
147
1.0
 76
     0
 77
     2
 78
   300
148
0.0
149
0.0
100
AcDbLayout
  1
Model
 70
     1
 71
     0
 10
0.0
 20
0.0
 11
12.0
 21
9.0
 12
0.0
 22
0.0
 32
0.0
 14
1.802899999999999
 24
-0.0235
 34
0.0
 15
34.2053
 25
36.0103
 35
0.0
146
0.0
 13
0.0
 23
0.0
 33
0.0
 16
1.0
 26
0.0
 36
0.0
 17
0.0
 27
1.0
 37
0.0
 76
     0
330
1F
331
29
  0
MATERIAL
  5
45
102
{ACAD_REACTORS
330
43
102
}
330
43
100
AcDbMaterial
  1
ByBlock
  0
MATERIAL
  5
44
102
{ACAD_REACTORS
330
43
102
}
330
43
100
AcDbMaterial
  1
ByLayer
  0
MATERIAL
  5
46
102
{ACAD_REACTORS
330
43
102
}
330
43
100
AcDbMaterial
  1
Global
  0
MLEADERSTYLE
  5
6C
102
{ACAD_REACTORS
330
6B
102
}
330
6B
100
AcDbMLeaderStyle
179
     2
170
     2
171
     1
172
     0
 90
        2
 40
0.0
 41
0.0
173
     1
 91
-1056964608
340
14
 92
       -2
290
     1
 42
0.09
291
     1
 43
0.36
  3
Standard
 44
0.18
300

342
11
174
     1
178
     6
175
     1
176
     0
 93
-1056964608
 45
0.18
292
     0
297
     0
 46
0.18
 94
-1056964608
 47
1.0
 49
1.0
140
1.0
293
     1
141
0.0
294
     1
177
     0
142
1.0
295
     0
296
     0
143
0.125
271
     0
272
     9
273
     9
298
     0
1001
ACAD_MLEADERVER
1070
     2
  0
MLINESTYLE
  5
18
102
{ACAD_REACTORS
330
17
102
}
330
17
100
AcDbMlineStyle
  2
STANDARD
 70
     0
  3

 62
   256
 51
90.0
 52
90.0
 71
     2
 49
0.5
 62
   256
  6
BYLAYER
 49
-0.5
 62
   256
  6
BYLAYER
  0
ACDBPLACEHOLDER
  5
F
102
{ACAD_REACTORS
330
E
102
}
330
E
  0
SCALE
  5
48
102
{ACAD_REACTORS
330
47
102
}
330
47
100
AcDbScale
 70
     0
300
1:1
140
1.0
141
1.0
290
     1
  0
SCALE
  5
49
102
{ACAD_REACTORS
330
47
102
}
330
47
100
AcDbScale
 70
     0
300
1:2
140
1.0
141
2.0
290
     0
  0
SCALE
  5
4A
102
{ACAD_REACTORS
330
47
102
}
330
47
100
AcDbScale
 70
     0
300
1:4
140
1.0
141
4.0
290
     0
  0
SCALE
  5
4B
102
{ACAD_REACTORS
330
47
102
}
330
47
100
AcDbScale
 70
     0
300
1:5
140
1.0
141
5.0
290
     0
  0
SCALE
  5
4C
102
{ACAD_REACTORS
330
47
102
}
330
47
100
AcDbScale
 70
     0
300
1:8
140
1.0
141
8.0
290
     0
  0
SCALE
  5
4D
102
{ACAD_REACTORS
330
47
102
}
330
47
100
AcDbScale
 70
     0
300
1:10
140
1.0
141
10.0
290
     0
  0
SCALE
  5
4E
102
{ACAD_REACTORS
330
47
102
}
330
47
100
AcDbScale
 70
     0
300
1:16
140
1.0
141
16.0
290
     0
  0
SCALE
  5
4F
102
{ACAD_REACTORS
330
47
102
}
330
47
100
AcDbScale
 70
     0
300
1:20
140
1.0
141
20.0
290
     0
  0
SCALE
  5
50
102
{ACAD_REACTORS
330
47
102
}
330
47
100
AcDbScale
 70
     0
300
1:30
140
1.0
141
30.0
290
     0
  0
SCALE
  5
51
102
{ACAD_REACTORS
330
47
102
}
330
47
100
AcDbScale
 70
     0
300
1:40
140
1.0
141
40.0
290
     0
  0
SCALE
  5
52
102
{ACAD_REACTORS
330
47
102
}
330
47
100
AcDbScale
 70
     0
300
1:50
140
1.0
141
50.0
290
     0
  0
SCALE
  5
53
102
{ACAD_REACTORS
330
47
102
}
330
47
100
AcDbScale
 70
     0
300
1:100
140
1.0
141
100.0
290
     0
  0
SCALE
  5
54
102
{ACAD_REACTORS
330
47
102
}
330
47
100
AcDbScale
 70
     0
300
2:1
140
2.0
141
1.0
290
     0
  0
SCALE
  5
55
102
{ACAD_REACTORS
330
47
102
}
330
47
100
AcDbScale
 70
     0
300
4:1
140
4.0
141
1.0
290
     0
  0
SCALE
  5
56
102
{ACAD_REACTORS
330
47
102
}
330
47
100
AcDbScale
 70
     0
300
8:1
140
8.0
141
1.0
290
     0
  0
SCALE
  5
57
102
{ACAD_REACTORS
330
47
102
}
330
47
100
AcDbScale
 70
     0
300
10:1
140
10.0
141
1.0
290
     0
  0
SCALE
  5
58
102
{ACAD_REACTORS
330
47
102
}
330
47
100
AcDbScale
 70
     0
300
100:1
140
100.0
141
1.0
290
     0
  0
SCALE
  5
59
102
{ACAD_REACTORS
330
47
102
}
330
47
100
AcDbScale
 70
     0
300
1/128" = 1'-0"
140
0.0078125
141
12.0
290
     0
  0
SCALE
  5
5A
102
{ACAD_REACTORS
330
47
102
}
330
47
100
AcDbScale
 70
     0
300
1/64" = 1'-0"
140
0.015625
141
12.0
290
     0
  0
SCALE
  5
5B
102
{ACAD_REACTORS
330
47
102
}
330
47
100
AcDbScale
 70
     0
300
1/32" = 1'-0"
140
0.03125
141
12.0
290
     0
  0
SCALE
  5
5C
102
{ACAD_REACTORS
330
47
102
}
330
47
100
AcDbScale
 70
     0
300
1/16" = 1'-0"
140
0.0625
141
12.0
290
     0
  0
SCALE
  5
5D
102
{ACAD_REACTORS
330
47
102
}
330
47
100
AcDbScale
 70
     0
300
3/32" = 1'-0"
140
0.09375
141
12.0
290
     0
  0
SCALE
  5
5E
102
{ACAD_REACTORS
330
47
102
}
330
47
100
AcDbScale
 70
     0
300
1/8" = 1'-0"
140
0.125
141
12.0
290
     0
  0
SCALE
  5
5F
102
{ACAD_REACTORS
330
47
102
}
330
47
100
AcDbScale
 70
     0
300
3/16" = 1'-0"
140
0.1875
141
12.0
290
     0
  0
SCALE
  5
60
102
{ACAD_REACTORS
330
47
102
}
330
47
100
AcDbScale
 70
     0
300
1/4" = 1'-0"
140
0.25
141
12.0
290
     0
  0
SCALE
  5
61
102
{ACAD_REACTORS
330
47
102
}
330
47
100
AcDbScale
 70
     0
300
3/8" = 1'-0"
140
0.375
141
12.0
290
     0
  0
SCALE
  5
62
102
{ACAD_REACTORS
330
47
102
}
330
47
100
AcDbScale
 70
     0
300
1/2" = 1'-0"
140
0.5
141
12.0
290
     0
  0
SCALE
  5
63
102
{ACAD_REACTORS
330
47
102
}
330
47
100
AcDbScale
 70
     0
300
3/4" = 1'-0"
140
0.75
141
12.0
290
     0
  0
SCALE
  5
64
102
{ACAD_REACTORS
330
47
102
}
330
47
100
AcDbScale
 70
     0
300
1" = 1'-0"
140
1.0
141
12.0
290
     0
  0
SCALE
  5
65
102
{ACAD_REACTORS
330
47
102
}
330
47
100
AcDbScale
 70
     0
300
1-1/2" = 1'-0"
140
1.5
141
12.0
290
     0
  0
SCALE
  5
66
102
{ACAD_REACTORS
330
47
102
}
330
47
100
AcDbScale
 70
     0
300
3" = 1'-0"
140
3.0
141
12.0
290
     0
  0
SCALE
  5
67
102
{ACAD_REACTORS
330
47
102
}
330
47
100
AcDbScale
 70
     0
300
6" = 1'-0"
140
6.0
141
12.0
290
     0
  0
SCALE
  5
68
102
{ACAD_REACTORS
330
47
102
}
330
47
100
AcDbScale
 70
     0
300
1'-0" = 1'-0"
140
12.0
141
12.0
290
     0
  0
ACDBSECTIONVIEWSTYLE
  5
BD
102
{ACAD_XDICTIONARY
360
CC
102
}
102
{ACAD_REACTORS
330
B9
102
}
330
B9
100
AcDbModelDocViewStyle
 70
     0
  3
Imperial24
290
     0
100
AcDbSectionViewStyle
 70
     0
 71
     0
 90
       78
 71
     1
340
11
 62
   256
 40
0.24
340
0
340
0
 62
   256
 40
0.24
300
I, O, Q, S, X, Z
 40
0.48
 90
        3
 40
0.18
 90
        1
 71
     2
340
16
 90
       25
 62
   256
340
16
 90
       50
 62
   256
 40
0.24
 40
0.0
 40
0.24
 71
     3
340
11
 62
   256
 40
0.24
 90
        1
 40
0.75
 90
        1
300
%<\AcVar ViewType \f "%tc1">% %<\AcVar ViewSectionStartId>%-%<\AcVar ViewSectionEndId>%\PSCALE %<\AcVar ViewScale \f "%sn">%
 71
     4
 62
   256
 62
   257
300
ANSI31
 40
1.0
 90
        0
290
     0
290
     0
 90
        6
 40
0.0
 40
1.570796326794896
 40
0.2617993877991494
 40
1.308996938995747
 40
-0.2617993877991494
 40
1.832595714594046
  0
TABLESTYLE
  5
6A
102
{ACAD_XDICTIONARY
360
B0
102
}
102
{ACAD_REACTORS
330
69
102
}
330
69
100
AcDbTableStyle
280
     0
  3
Standard
 70
     0
 71
     0
 40
0.06
 41
0.06
280
     0
281
     0
  7
Standard
140
0.18
170
     2
 62
     0
 63
     7
283
     0
 90
        4
 91
        0
  1

274
    -2
284
     1
 64
     0
275
    -2
285
     1
 65
     0
276
    -2
286
     1
 66
     0
277
    -2
287
     1
 67
     0
278
    -2
288
     1
 68
     0
279
    -2
289
     1
 69
     0
  7
Standard
140
0.25
170
     5
 62
     0
 63
     7
283
     0
 90
        4
 91
        0
  1

274
    -2
284
     1
 64
     0
275
    -2
285
     1
 65
     0
276
    -2
286
     1
 66
     0
277
    -2
287
     1
 67
     0
278
    -2
288
     1
 68
     0
279
    -2
289
     1
 69
     0
  7
Standard
140
0.18
170
     5
 62
     0
 63
     7
283
     0
 90
        4
 91
        0
  1

274
    -2
284
     1
 64
     0
275
    -2
285
     1
 65
     0
276
    -2
286
     1
 66
     0
277
    -2
287
     1
 67
     0
278
    -2
288
     1
 68
     0
279
    -2
289
     1
 69
     0
  0
VISUALSTYLE
  5
2F
102
{ACAD_REACTORS
330
2A
102
}
330
2A
100
AcDbVisualStyle
  2

 70
     4
177
     3
291
     0
 70
    58
 90
        0
176
     1
 90
        2
176
     1
 90
        0
176
     1
 90
        0
176
     1
 40
0.6
176
     1
 40
30.0
176
     1
 62
     7
420
 16777215
176
     1
 90
        1
176
     1
 90
        4
176
     1
 62
     7
176
     1
 62
   257
176
     1
 90
        1
176
     1
 90
        1
176
     1
 40
1.0
176
     1
 90
        0
176
     1
 62
   257
176
     1
 40
1.0
176
     1
 90
        1
176
     1
 90
        6
176
     1
 90
        2
176
     1
 62
     7
176
     1
 90
        5
176
     1
 90
        0
176
     1
 90
        0
176
     1
290
     0
176
     1
 90
        1
176
     1
 40
0.0
176
     1
 90
        0
176
     1
290
     1
176
     1
290
     1
176
     1
290
     0
176
     1
290
     0
176
     1
290
     0
176
     1
290
     0
176
     1
290
     0
176
     1
290
     0
176
     1
290
     0
176
     1
 90
       50
176
     1
 40
0.0
176
     1
 40
1.0
176
     1
 90
        0
176
     1
 62
    18
420
        0
176
     1
 90
       50
176
     1
 90
        3
176
     1
 62
     5
420
      255
176
     1
290
     0
176
     1
 90
       50
176
     1
 90
       50
176
     1
 90
       50
176
     1
290
     0
176
     1
 90
       50
176
     1
 62
   256
176
     0
 40
1.0
176
     0
 90
        2
176
     1
  1
strokes_ogs.tif
176
     1
290
     0
176
     1
 40
1.0
176
     1
 40
1.0
176
     1
  0
VISUALSTYLE
  5
32
102
{ACAD_REACTORS
330
2A
102
}
330
2A
100
AcDbVisualStyle
  2

 70
     7
177
     3
291
     1
 70
    58
 90
        1
176
     1
 90
        0
176
     1
 90
        1
176
     1
 90
        0
176
     1
 40
0.6
176
     1
 40
30.0
176
     1
 62
     7
420
 16777215
176
     1
 90
        0
176
     1
 90
        4
176
     1
 62
     7
176
     1
 62
   257
176
     1
 90
        1
176
     1
 90
        1
176
     1
 40
1.0
176
     1
 90
        8
176
     1
 62
     7
176
     1
 40
1.0
176
     1
 90
        1
176
     1
 90
        6
176
     1
 90
        2
176
     1
 62
     7
176
     1
 90
        5
176
     1
 90
        0
176
     1
 90
        0
176
     1
290
     0
176
     1
 90
        1
176
     1
 40
0.0
176
     1
 90
        0
176
     1
290
     0
176
     1
290
     1
176
     1
290
     1
176
     1
290
     0
176
     1
290
     0
176
     1
290
     0
176
     1
290
     0
176
     1
290
     0
176
     1
290
     0
176
     1
 90
       50
176
     1
 40
0.0
176
     1
 40
1.0
176
     1
 90
        0
176
     1
 62
    18
420
        0
176
     1
 90
       50
176
     1
 90
        3
176
     1
 62
     5
420
      255
176
     1
290
     0
176
     1
 90
       50
176
     1
 90
       50
176
     1
 90
       50
176
     1
290
     0
176
     1
 90
       50
176
     1
 62
   256
176
     0
 40
1.0
176
     0
 90
        2
176
     1
  1
strokes_ogs.tif
176
     1
290
     0
176
     1
 40
1.0
176
     1
 40
1.0
176
     1
  0
VISUALSTYLE
  5
36
102
{ACAD_REACTORS
330
2A
102
}
330
2A
100
AcDbVisualStyle
  2

 70
    12
177
     3
291
     1
 70
    58
 90
        2
176
     1
 90
        2
176
     1
 90
        0
176
     1
 90
        0
176
     1
 40
0.6
176
     1
 40
30.0
176
     1
 62
     7
420
 16777215
176
     1
 90
        1
176
     1
 90
        4
176
     1
 62
     7
176
     1
 62
   257
176
     1
 90
        1
176
     1
 90
        1
176
     1
 40
1.0
176
     1
 90
        8
176
     1
 62
     7
176
     1
 40
1.0
176
     1
 90
        1
176
     1
 90
        6
176
     1
 90
        2
176
     1
 62
     7
176
     1
 90
        5
176
     1
 90
        0
176
     1
 90
        0
176
     1
290
     0
176
     1
 90
        1
176
     1
 40
50.0
176
     1
 90
        0
176
     1
290
     0
176
     1
290
     1
176
     1
290
     1
176
     1
290
     0
176
     1
290
     0
176
     1
290
     0
176
     1
290
     0
176
     1
290
     0
176
     1
290
     0
176
     1
 90
       50
176
     1
 40
0.0
176
     1
 40
1.0
176
     1
 90
        0
176
     1
 62
    18
420
        0
176
     1
 90
       50
176
     1
 90
        3
176
     1
 62
     5
420
      255
176
     1
290
     0
176
     1
 90
       50
176
     1
 90
       50
176
     1
 90
       50
176
     1
290
     0
176
     1
 90
       50
176
     1
 62
   256
176
     0
 40
1.0
176
     0
 90
        2
176
     1
  1
strokes_ogs.tif
176
     1
290
     0
176
     1
 40
1.0
176
     1
 40
1.0
176
     1
  0
VISUALSTYLE
  5
3A
102
{ACAD_REACTORS
330
2A
102
}
330
2A
100
AcDbVisualStyle
  2

 70
    16
177
     3
291
     1
 70
    58
 90
        2
176
     1
 90
        2
176
     1
 90
        3
176
     1
 90
        0
176
     1
 40
0.6
176
     1
 40
30.0
176
     1
 62
     8
420
  8421504
176
     1
 90
        1
176
     1
 90
        4
176
     1
 62
     7
176
     1
 62
   257
176
     1
 90
        1
176
     1
 90
        1
176
     1
 40
1.0
176
     1
 90
        8
176
     1
 62
     8
420
  8421504
176
     1
 40
1.0
176
     1
 90
        1
176
     1
 90
        6
176
     1
 90
        2
176
     1
 62
     7
176
     1
 90
        5
176
     1
 90
        0
176
     1
 90
        0
176
     1
290
     0
176
     1
 90
        1
176
     1
 40
0.0
176
     1
 90
        0
176
     1
290
     0
176
     1
290
     1
176
     1
290
     1
176
     1
290
     0
176
     1
290
     0
176
     1
290
     0
176
     1
290
     0
176
     1
290
     0
176
     1
290
     0
176
     1
 90
       50
176
     1
 40
0.0
176
     1
 40
1.0
176
     1
 90
        0
176
     1
 62
    18
420
        0
176
     1
 90
       50
176
     1
 90
        3
176
     1
 62
     5
420
      255
176
     1
290
     0
176
     1
 90
       50
176
     1
 90
       50
176
     1
 90
       50
176
     1
290
     0
176
     1
 90
       50
176
     1
 62
   256
176
     0
 40
1.0
176
     0
 90
        2
176
     1
  1
strokes_ogs.tif
176
     1
290
     0
176
     1
 40
1.0
176
     1
 40
1.0
176
     1
  0
VISUALSTYLE
  5
34
102
{ACAD_REACTORS
330
2A
102
}
330
2A
100
AcDbVisualStyle
  2

 70
     9
177
     3
291
     0
 70
    58
 90
        3
176
     1
 90
        2
176
     1
 90
        0
176
     1
 90
        0
176
     1
 40
0.6
176
     1
 40
30.0
176
     1
 62
     7
420
 16777215
176
     1
 90
        2
176
     1
 90
        2
176
     1
 62
     7
176
     1
 62
   257
176
     1
 90
        1
176
     1
 90
        1
176
     1
 40
179.0
176
     1
 90
        8
176
     1
 62
     7
176
     1
 40
1.0
176
     1
 90
        1
176
     1
 90
        6
176
     1
 90
        2
176
     1
 62
     7
176
     1
 90
        3
176
     1
 90
        0
176
     1
 90
        0
176
     1
290
     0
176
     1
 90
        1
176
     1
 40
0.0
176
     1
 90
        0
176
     1
290
     0
176
     1
290
     1
176
     1
290
     1
176
     1
290
     0
176
     1
290
     0
176
     1
290
     0
176
     1
290
     0
176
     1
290
     0
176
     1
290
     0
176
     1
 90
       50
176
     1
 40
0.0
176
     1
 40
1.0
176
     1
 90
        0
176
     1
 62
    18
420
        0
176
     1
 90
       50
176
     1
 90
        3
176
     1
 62
     5
420
      255
176
     1
290
     0
176
     1
 90
       50
176
     1
 90
       50
176
     1
 90
       50
176
     1
290
     0
176
     1
 90
       50
176
     1
 62
   256
176
     0
 40
1.0
176
     0
 90
        2
176
     1
  1
strokes_ogs.tif
176
     1
290
     0
176
     1
 40
1.0
176
     1
 40
1.0
176
     1
  0
VISUALSTYLE
  5
35
102
{ACAD_REACTORS
330
2A
102
}
330
2A
100
AcDbVisualStyle
  2

 70
    11
177
     3
291
     1
 70
    58
 90
        2
176
     1
 90
        2
176
     1
 90
        0
176
     1
 90
        0
176
     1
 40
0.6
176
     1
 40
30.0
176
     1
 62
     7
420
 16777215
176
     1
 90
        1
176
     1
 90
        4
176
     1
 62
     7
176
     1
 62
   257
176
     1
 90
        1
176
     1
 90
        1
176
     1
 40
1.0
176
     1
 90
        8
176
     1
 62
     7
176
     1
 40
1.0
176
     1
 90
        1
176
     1
 90
        6
176
     1
 90
        2
176
     1
 62
     7
176
     1
 90
        5
176
     1
 90
        0
176
     1
 90
        0
176
     1
290
     0
176
     1
 90
        1
176
     1
 40
-50.0
176
     1
 90
        0
176
     1
290
     0
176
     1
290
     1
176
     1
290
     1
176
     1
290
     0
176
     1
290
     0
176
     1
290
     0
176
     1
290
     0
176
     1
290
     0
176
     1
290
     0
176
     1
 90
       50
176
     1
 40
0.0
176
     1
 40
1.0
176
     1
 90
        0
176
     1
 62
    18
420
        0
176
     1
 90
       50
176
     1
 90
        3
176
     1
 62
     5
420
      255
176
     1
290
     0
176
     1
 90
       50
176
     1
 90
       50
176
     1
 90
       50
176
     1
290
     0
176
     1
 90
       50
176
     1
 62
   256
176
     0
 40
1.0
176
     0
 90
        2
176
     1
  1
strokes_ogs.tif
176
     1
290
     0
176
     1
 40
1.0
176
     1
 40
1.0
176
     1
  0
VISUALSTYLE
  5
3D
102
{ACAD_REACTORS
330
2A
102
}
330
2A
100
AcDbVisualStyle
  2

 70
    22
177
     3
291
     1
 70
    58
 90
        2
176
     0
 90
        2
176
     0
 90
        0
176
     0
 90
        0
176
     0
 40
0.6
176
     0
 40
30.0
176
     0
 62
     7
420
 16777215
176
     0
 90
        1
176
     0
 90
        4
176
     0
 62
     7
176
     0
 62
   257
176
     0
 90
        1
176
     0
 90
        1
176
     0
 40
1.0
176
     0
 90
        8
176
     2
 62
     7
176
     0
 40
1.0
176
     0
 90
        1
176
     0
 90
        6
176
     0
 90
        2
176
     0
 62
     7
176
     0
 90
        5
176
     0
 90
        0
176
     0
 90
        0
176
     0
290
     0
176
     0
 90
        1
176
     0
 40
0.0
176
     0
 90
        0
176
     0
290
     0
176
     0
290
     1
176
     0
290
     1
176
     0
290
     0
176
     0
290
     0
176
     0
290
     0
176
     0
290
     0
176
     0
290
     0
176
     0
290
     0
176
     0
 90
       50
176
     0
 40
0.0
176
     0
 40
1.0
176
     0
 90
        0
176
     0
 62
    18
420
        0
176
     0
 90
       50
176
     0
 90
        3
176
     0
 62
     5
420
      255
176
     0
290
     0
176
     0
 90
       50
176
     0
 90
       50
176
     0
 90
       50
176
     0
290
     0
176
     0
 90
       50
176
     0
 62
   256
176
     0
 40
1.0
176
     0
 90
        2
176
     0
  1
strokes_ogs.tif
176
     0
290
     0
176
     0
 40
1.0
176
     0
 40
1.0
176
     0
  0
VISUALSTYLE
  5
39
102
{ACAD_REACTORS
330
2A
102
}
330
2A
100
AcDbVisualStyle
  2

 70
    15
177
     3
291
     1
 70
    58
 90
        2
176
     1
 90
        2
176
     1
 90
        0
176
     1
 90
        0
176
     1
 40
0.6
176
     1
 40
30.0
176
     1
 62
     7
420
 16777215
176
     1
 90
        1
176
     1
 90
        4
176
     1
 62
     7
176
     1
 62
   257
176
     1
 90
        1
176
     1
 90
        1
176
     1
 40
1.0
176
     1
 90
        8
176
     1
 62
     7
176
     1
 40
1.0
176
     1
 90
        1
176
     1
 90
        6
176
     1
 90
        2
176
     1
 62
     7
176
     1
 90
        5
176
     1
 90
        0
176
     1
 90
        0
176
     1
290
     0
176
     1
 90
        1
176
     1
 40
0.0
176
     1
 90
        0
176
     1
290
     0
176
     1
290
     1
176
     1
290
     1
176
     1
290
     0
176
     1
290
     0
176
     1
290
     0
176
     1
290
     0
176
     1
290
     0
176
     1
290
     0
176
     1
 90
       50
176
     1
 40
0.0
176
     1
 40
1.0
176
     1
 90
        0
176
     1
 62
    18
420
        0
176
     1
 90
       50
176
     1
 90
        3
176
     1
 62
     5
420
      255
176
     1
290
     0
176
     1
 90
       50
176
     1
 90
       50
176
     1
 90
       50
176
     1
290
     0
176
     1
 90
       50
176
     1
 62
   256
176
     0
 40
1.0
176
     0
 90
        2
176
     1
  1
strokes_ogs.tif
176
     1
290
     0
176
     1
 40
1.0
176
     1
 40
1.0
176
     1
  0
VISUALSTYLE
  5
2B
102
{ACAD_REACTORS
330
2A
102
}
330
2A
100
AcDbVisualStyle
  2

 70
     0
177
     3
291
     1
 70
    58
 90
        2
176
     1
 90
        1
176
     1
 90
        1
176
     1
 90
        2
176
     1
 40
0.6
176
     1
 40
30.0
176
     1
 62
     7
420
 16777215
176
     1
 90
        0
176
     1
 90
        0
176
     1
 62
     7
176
     1
 62
   257
176
     1
 90
        1
176
     1
 90
        1
176
     1
 40
1.0
176
     1
 90
        8
176
     1
 62
     7
176
     1
 40
1.0
176
     1
 90
        1
176
     1
 90
        6
176
     1
 90
        2
176
     1
 62
     7
176
     1
 90
        5
176
     1
 90
        0
176
     1
 90
        0
176
     1
290
     0
176
     1
 90
       13
176
     1
 40
0.0
176
     1
 90
        0
176
     1
290
     0
176
     1
290
     1
176
     1
290
     1
176
     1
290
     0
176
     1
290
     0
176
     1
290
     0
176
     1
290
     0
176
     1
290
     0
176
     1
290
     0
176
     1
 90
       50
176
     1
 40
0.0
176
     1
 40
1.0
176
     1
 90
        0
176
     1
 62
    18
420
        0
176
     1
 90
       50
176
     1
 90
        3
176
     1
 62
     5
420
      255
176
     1
290
     0
176
     1
 90
       50
176
     1
 90
       50
176
     1
 90
       50
176
     1
290
     0
176
     1
 90
       50
176
     1
 62
   256
176
     0
 40
1.0
176
     0
 90
        2
176
     1
  1
strokes_ogs.tif
176
     1
290
     0
176
     1
 40
1.0
176
     1
 40
1.0
176
     1
  0
VISUALSTYLE
  5
2C
102
{ACAD_REACTORS
330
2A
102
}
330
2A
100
AcDbVisualStyle
  2

 70
     1
177
     3
291
     1
 70
    58
 90
        2
176
     1
 90
        1
176
     1
 90
        1
176
     1
 90
        2
176
     1
 40
0.6
176
     1
 40
30.0
176
     1
 62
     7
420
 16777215
176
     1
 90
        1
176
     1
 90
        0
176
     1
 62
     7
176
     1
 62
   257
176
     1
 90
        1
176
     1
 90
        1
176
     1
 40
1.0
176
     1
 90
        0
176
     1
 62
   257
176
     1
 40
1.0
176
     1
 90
        1
176
     1
 90
        6
176
     1
 90
        2
176
     1
 62
     7
176
     1
 90
        5
176
     1
 90
        0
176
     1
 90
        0
176
     1
290
     0
176
     1
 90
       13
176
     1
 40
0.0
176
     1
 90
        0
176
     1
290
     0
176
     1
290
     1
176
     1
290
     1
176
     1
290
     0
176
     1
290
     0
176
     1
290
     0
176
     1
290
     0
176
     1
290
     0
176
     1
290
     0
176
     1
 90
       50
176
     1
 40
0.0
176
     1
 40
1.0
176
     1
 90
        0
176
     1
 62
    18
420
        0
176
     1
 90
       50
176
     1
 90
        3
176
     1
 62
     5
420
      255
176
     1
290
     0
176
     1
 90
       50
176
     1
 90
       50
176
     1
 90
       50
176
     1
290
     0
176
     1
 90
       50
176
     1
 62
   256
176
     0
 40
1.0
176
     0
 90
        2
176
     1
  1
strokes_ogs.tif
176
     1
290
     0
176
     1
 40
1.0
176
     1
 40
1.0
176
     1
  0
VISUALSTYLE
  5
2D
102
{ACAD_REACTORS
330
2A
102
}
330
2A
100
AcDbVisualStyle
  2

 70
     2
177
     3
291
     1
 70
    58
 90
        2
176
     1
 90
        2
176
     1
 90
        1
176
     1
 90
        2
176
     1
 40
0.6
176
     1
 40
30.0
176
     1
 62
     7
420
 16777215
176
     1
 90
        0
176
     1
 90
        0
176
     1
 62
     7
176
     1
 62
   257
176
     1
 90
        1
176
     1
 90
        1
176
     1
 40
1.0
176
     1
 90
        0
176
     1
 62
     7
176
     1
 40
1.0
176
     1
 90
        1
176
     1
 90
        6
176
     1
 90
        2
176
     1
 62
     7
176
     1
 90
        5
176
     1
 90
        0
176
     1
 90
        0
176
     1
290
     0
176
     1
 90
       13
176
     1
 40
0.0
176
     1
 90
        0
176
     1
290
     0
176
     1
290
     1
176
     1
290
     1
176
     1
290
     0
176
     1
290
     0
176
     1
290
     0
176
     1
290
     0
176
     1
290
     0
176
     1
290
     0
176
     1
 90
       50
176
     1
 40
0.0
176
     1
 40
1.0
176
     1
 90
        0
176
     1
 62
    18
420
        0
176
     1
 90
       50
176
     1
 90
        3
176
     1
 62
     5
420
      255
176
     1
290
     0
176
     1
 90
       50
176
     1
 90
       50
176
     1
 90
       50
176
     1
290
     0
176
     1
 90
       50
176
     1
 62
   256
176
     0
 40
1.0
176
     0
 90
        2
176
     1
  1
strokes_ogs.tif
176
     1
290
     0
176
     1
 40
1.0
176
     1
 40
1.0
176
     1
  0
VISUALSTYLE
  5
2E
102
{ACAD_REACTORS
330
2A
102
}
330
2A
100
AcDbVisualStyle
  2

 70
     3
177
     3
291
     1
 70
    58
 90
        2
176
     1
 90
        2
176
     1
 90
        1
176
     1
 90
        2
176
     1
 40
0.6
176
     1
 40
30.0
176
     1
 62
     7
420
 16777215
176
     1
 90
        1
176
     1
 90
        0
176
     1
 62
     7
176
     1
 62
   257
176
     1
 90
        1
176
     1
 90
        1
176
     1
 40
1.0
176
     1
 90
        0
176
     1
 62
   257
176
     1
 40
1.0
176
     1
 90
        1
176
     1
 90
        6
176
     1
 90
        2
176
     1
 62
     7
176
     1
 90
        5
176
     1
 90
        0
176
     1
 90
        0
176
     1
290
     0
176
     1
 90
       13
176
     1
 40
0.0
176
     1
 90
        0
176
     1
290
     0
176
     1
290
     1
176
     1
290
     1
176
     1
290
     0
176
     1
290
     0
176
     1
290
     0
176
     1
290
     0
176
     1
290
     0
176
     1
290
     0
176
     1
 90
       50
176
     1
 40
0.0
176
     1
 40
1.0
176
     1
 90
        0
176
     1
 62
    18
420
        0
176
     1
 90
       50
176
     1
 90
        3
176
     1
 62
     5
420
      255
176
     1
290
     0
176
     1
 90
       50
176
     1
 90
       50
176
     1
 90
       50
176
     1
290
     0
176
     1
 90
       50
176
     1
 62
   256
176
     0
 40
1.0
176
     0
 90
        2
176
     1
  1
strokes_ogs.tif
176
     1
290
     0
176
     1
 40
1.0
176
     1
 40
1.0
176
     1
  0
VISUALSTYLE
  5
31
102
{ACAD_REACTORS
330
2A
102
}
330
2A
100
AcDbVisualStyle
  2

 70
     6
177
     3
291
     0
 70
    58
 90
        1
176
     1
 90
        2
176
     1
 90
        2
176
     1
 90
        0
176
     1
 40
0.6
176
     1
 40
30.0
176
     1
 62
     7
420
 16777215
176
     1
 90
        2
176
     1
 90
        2
176
     1
 62
     7
176
     1
 62
   257
176
     1
 90
        2
176
     1
 90
        1
176
     1
 40
40.0
176
     1
 90
        0
176
     1
 62
   257
176
     1
 40
1.0
176
     1
 90
        1
176
     1
 90
        6
176
     1
 90
        2
176
     1
 62
     7
176
     1
 90
        3
176
     1
 90
        0
176
     1
 90
        0
176
     1
290
     0
176
     1
 90
        1
176
     1
 40
0.0
176
     1
 90
        0
176
     1
290
     0
176
     1
290
     1
176
     1
290
     1
176
     1
290
     0
176
     1
290
     0
176
     1
290
     0
176
     1
290
     0
176
     1
290
     0
176
     1
290
     0
176
     1
 90
       50
176
     1
 40
0.0
176
     1
 40
1.0
176
     1
 90
        0
176
     1
 62
    18
420
        0
176
     1
 90
       50
176
     1
 90
        3
176
     1
 62
     5
420
      255
176
     1
290
     0
176
     1
 90
       50
176
     1
 90
       50
176
     1
 90
       50
176
     1
290
     0
176
     1
 90
       50
176
     1
 62
   256
176
     0
 40
1.0
176
     0
 90
        2
176
     1
  1
strokes_ogs.tif
176
     1
290
     0
176
     1
 40
1.0
176
     1
 40
1.0
176
     1
  0
VISUALSTYLE
  5
3B
102
{ACAD_REACTORS
330
2A
102
}
330
2A
100
AcDbVisualStyle
  2

 70
    20
177
     3
291
     1
 70
    58
 90
        2
176
     0
 90
        2
176
     0
 90
        0
176
     0
 90
        0
176
     0
 40
0.6
176
     0
 40
30.0
176
     0
 62
     7
420
 16777215
176
     0
 90
        1
176
     0
 90
        4
176
     0
 62
     7
176
     0
 62
   257
176
     0
 90
        1
176
     0
 90
        1
176
     0
 40
1.0
176
     0
 90
       10
176
     2
 62
     7
176
     0
 40
1.0
176
     0
 90
        1
176
     0
 90
        6
176
     0
 90
        2
176
     0
 62
     7
176
     0
 90
        5
176
     0
 90
        0
176
     0
 90
        0
176
     0
290
     0
176
     0
 90
        1
176
     0
 40
0.0
176
     0
 90
        0
176
     0
290
     0
176
     0
290
     1
176
     0
290
     1
176
     0
290
     0
176
     0
290
     0
176
     0
290
     0
176
     0
290
     0
176
     0
290
     0
176
     0
290
     0
176
     0
 90
       50
176
     0
 40
0.0
176
     0
 40
1.0
176
     0
 90
        0
176
     0
 62
    18
420
        0
176
     0
 90
       50
176
     0
 90
        3
176
     0
 62
     5
420
      255
176
     0
290
     0
176
     0
 90
       50
176
     0
 90
       50
176
     0
 90
       50
176
     0
290
     0
176
     0
 90
       50
176
     0
 62
   256
176
     0
 40
1.0
176
     0
 90
        2
176
     0
  1
strokes_ogs.tif
176
     0
290
     0
176
     0
 40
1.0
176
     0
 40
1.0
176
     0
  0
VISUALSTYLE
  5
38
102
{ACAD_REACTORS
330
2A
102
}
330
2A
100
AcDbVisualStyle
  2

 70
    14
177
     3
291
     1
 70
    58
 90
        2
176
     1
 90
        2
176
     1
 90
        0
176
     1
 90
        0
176
     1
 40
0.6
176
     1
 40
30.0
176
     1
 62
     7
420
 16777215
176
     1
 90
        1
176
     1
 90
        4
176
     1
 62
     7
176
     1
 62
   257
176
     1
 90
        7
176
     1
 90
        7
176
     1
 40
1.0
176
     1
 90
        8
176
     1
 62
     7
176
     1
 40
1.0
176
     1
 90
        1
176
     1
 90
        6
176
     1
 90
        2
176
     1
 62
     7
176
     1
 90
        5
176
     1
 90
        0
176
     1
 90
        0
176
     1
290
     0
176
     1
 90
        1
176
     1
 40
0.0
176
     1
 90
        0
176
     1
290
     0
176
     1
290
     1
176
     1
290
     1
176
     1
290
     0
176
     1
290
     0
176
     1
290
     0
176
     1
290
     0
176
     1
290
     0
176
     1
290
     0
176
     1
 90
       50
176
     1
 40
0.0
176
     1
 40
1.0
176
     1
 90
        0
176
     1
 62
    18
420
        0
176
     1
 90
       50
176
     1
 90
        3
176
     1
 62
     5
420
      255
176
     1
290
     0
176
     1
 90
       50
176
     1
 90
       50
176
     1
 90
       50
176
     1
290
     0
176
     1
 90
       50
176
     1
 62
   256
176
     0
 40
1.0
176
     0
 90
        2
176
     1
  1
strokes_ogs.tif
176
     1
290
     0
176
     1
 40
1.0
176
     1
 40
1.0
176
     1
  0
VISUALSTYLE
  5
3C
102
{ACAD_REACTORS
330
2A
102
}
330
2A
100
AcDbVisualStyle
  2

 70
    21
177
     3
291
     1
 70
    58
 90
        2
176
     0
 90
        2
176
     0
 90
        0
176
     0
 90
        0
176
     0
 40
0.6
176
     0
 40
30.0
176
     0
 62
     7
420
 16777215
176
     0
 90
        1
176
     0
 90
        4
176
     0
 62
     7
176
     0
 62
   257
176
     0
 90
        1
176
     0
 90
        1
176
     0
 40
1.0
176
     0
 90
        9
176
     2
 62
     7
176
     0
 40
1.0
176
     0
 90
        1
176
     0
 90
        6
176
     0
 90
        2
176
     0
 62
     7
176
     0
 90
        5
176
     0
 90
        0
176
     0
 90
        0
176
     0
290
     0
176
     0
 90
        1
176
     0
 40
0.0
176
     0
 90
        0
176
     0
290
     0
176
     0
290
     1
176
     0
290
     1
176
     0
290
     0
176
     0
290
     0
176
     0
290
     0
176
     0
290
     0
176
     0
290
     0
176
     0
290
     0
176
     0
 90
       50
176
     0
 40
0.0
176
     0
 40
1.0
176
     0
 90
        0
176
     0
 62
    18
420
        0
176
     0
 90
       50
176
     0
 90
        3
176
     0
 62
     5
420
      255
176
     0
290
     0
176
     0
 90
       50
176
     0
 90
       50
176
     0
 90
       50
176
     0
290
     0
176
     0
 90
       50
176
     0
 62
   256
176
     0
 40
1.0
176
     0
 90
        2
176
     0
  1
strokes_ogs.tif
176
     0
290
     0
176
     0
 40
1.0
176
     0
 40
1.0
176
     0
  0
VISUALSTYLE
  5
33
102
{ACAD_REACTORS
330
2A
102
}
330
2A
100
AcDbVisualStyle
  2

 70
     8
177
     3
291
     0
 70
    58
 90
        2
176
     1
 90
        3
176
     1
 90
        0
176
     1
 90
        2
176
     1
 40
0.6
176
     1
 40
30.0
176
     1
 62
     7
420
 16777215
176
     1
 90
        0
176
     1
 90
        0
176
     1
 62
     7
176
     1
 62
   257
176
     1
 90
        1
176
     1
 90
        1
176
     1
 40
1.0
176
     1
 90
        8
176
     1
 62
   257
176
     1
 40
1.0
176
     1
 90
        1
176
     1
 90
        6
176
     1
 90
        2
176
     1
 62
     7
176
     1
 90
        3
176
     1
 90
        0
176
     1
 90
        0
176
     1
290
     0
176
     1
 90
       13
176
     1
 40
0.0
176
     1
 90
        0
176
     1
290
     0
176
     1
290
     1
176
     1
290
     1
176
     1
290
     0
176
     1
290
     0
176
     1
290
     0
176
     1
290
     0
176
     1
290
     0
176
     1
290
     0
176
     1
 90
       50
176
     1
 40
0.0
176
     1
 40
1.0
176
     1
 90
        0
176
     1
 62
    18
420
        0
176
     1
 90
       50
176
     1
 90
        3
176
     1
 62
     5
420
      255
176
     1
290
     0
176
     1
 90
       50
176
     1
 90
       50
176
     1
 90
       50
176
     1
290
     0
176
     1
 90
       50
176
     1
 62
   256
176
     0
 40
1.0
176
     0
 90
        2
176
     1
  1
strokes_ogs.tif
176
     1
290
     0
176
     1
 40
1.0
176
     1
 40
1.0
176
     1
  0
VISUALSTYLE
  5
42
102
{ACAD_REACTORS
330
2A
102
}
330
2A
100
AcDbVisualStyle
  2

 70
    27
177
     3
291
     0
 70
    58
 90
        2
176
     1
 90
        2
176
     1
 90
        1
176
     1
 90
        2
176
     1
 40
0.6
176
     1
 40
30.0
176
     1
 62
     7
420
 16777215
176
     1
 90
        0
176
     1
 90
        4
176
     1
 62
     7
176
     1
 62
   257
176
     1
 90
        1
176
     1
 90
        1
176
     1
 40
1.0
176
     1
 90
        8
176
     1
 62
   257
176
     1
 40
1.0
176
     1
 90
        1
176
     1
 90
        6
176
     1
 90
        2
176
     1
 62
     8
420
  7895160
176
     1
 90
        3
176
     1
 90
        0
176
     1
 90
        0
176
     1
290
     0
176
     1
 90
        5
176
     1
 40
0.0
176
     1
 90
        0
176
     1
290
     0
176
     1
290
     1
176
     1
290
     1
176
     1
290
     0
176
     1
290
     0
176
     1
290
     0
176
     1
290
     0
176
     1
290
     0
176
     1
290
     0
176
     1
 90
       50
176
     1
 40
0.0
176
     1
 40
1.0
176
     1
 90
        0
176
     1
 62
    18
420
        0
176
     1
 90
       50
176
     1
 90
        3
176
     1
 62
     5
420
      255
176
     1
290
     0
176
     1
 90
       50
176
     1
 90
       50
176
     1
 90
       50
176
     1
290
     0
176
     1
 90
       50
176
     1
 62
   256
176
     0
 40
1.0
176
     0
 90
        2
176
     1
  1
strokes_ogs.tif
176
     1
290
     0
176
     1
 40
1.0
176
     1
 40
1.0
176
     1
  0
VISUALSTYLE
  5
41
102
{ACAD_REACTORS
330
2A
102
}
330
2A
100
AcDbVisualStyle
  2

 70
    26
177
     3
291
     0
 70
    58
 90
        2
176
     1
 90
        2
176
     1
 90
        1
176
     1
 90
        2
176
     1
 40
0.6
176
     1
 40
30.0
176
     1
 62
     7
420
 16777215
176
     1
 90
        1
176
     1
 90
       10
176
     1
 62
     7
176
     1
 62
   257
176
     1
 90
        2
176
     1
 90
        1
176
     1
 40
1.0
176
     1
 90
        8
176
     1
 62
   257
176
     1
 40
1.0
176
     1
 90
        1
176
     1
 90
        6
176
     1
 90
        2
176
     1
 62
     7
176
     1
 90
        3
176
     1
 90
        0
176
     1
 90
        0
176
     1
290
     0
176
     1
 90
        5
176
     1
 40
0.0
176
     1
 90
        0
176
     1
290
     0
176
     1
290
     1
176
     1
290
     1
176
     1
290
     0
176
     1
290
     0
176
     1
290
     0
176
     1
290
     0
176
     1
290
     0
176
     1
290
     0
176
     1
 90
       50
176
     1
 40
0.0
176
     1
 40
1.0
176
     1
 90
        0
176
     1
 62
    18
420
        0
176
     1
 90
       50
176
     1
 90
        3
176
     1
 62
     5
420
      255
176
     1
290
     0
176
     1
 90
       50
176
     1
 90
       50
176
     1
 90
       50
176
     1
290
     0
176
     1
 90
       50
176
     1
 62
   256
176
     0
 40
1.0
176
     0
 90
        2
176
     1
  1
strokes_ogs.tif
176
     1
290
     0
176
     1
 40
1.0
176
     1
 40
1.0
176
     1
  0
VISUALSTYLE
  5
3E
102
{ACAD_REACTORS
330
2A
102
}
330
2A
100
AcDbVisualStyle
  2

 70
    23
177
     3
291
     0
 70
    58
 90
        2
176
     1
 90
        2
176
     1
 90
        3
176
     1
 90
        0
176
     1
 40
0.6
176
     1
 40
30.0
176
     1
 62
     7
420
 16777215
176
     1
 90
        2
176
     1
 90
        2
176
     1
 62
     7
176
     1
 62
     7
176
     1
 90
        1
176
     1
 90
        1
176
     1
 40
40.0
176
     1
 90
        8
176
     1
 62
     7
176
     1
 40
1.0
176
     1
 90
        1
176
     1
 90
        6
176
     1
 90
        2
176
     1
 62
     7
176
     1
 90
        3
176
     1
 90
        0
176
     1
 90
        0
176
     1
290
     0
176
     1
 90
        1
176
     1
 40
0.0
176
     1
 90
        0
176
     1
290
     0
176
     1
290
     1
176
     1
290
     1
176
     1
290
     0
176
     1
290
     0
176
     1
290
     0
176
     1
290
     0
176
     1
290
     0
176
     1
290
     0
176
     1
 90
       50
176
     1
 40
0.0
176
     1
 40
1.0
176
     1
 90
        0
176
     1
 62
    18
420
        0
176
     1
 90
       50
176
     1
 90
        3
176
     1
 62
     5
420
      255
176
     1
290
     0
176
     1
 90
       50
176
     1
 90
       50
176
     1
 90
       50
176
     1
290
     0
176
     1
 90
       50
176
     1
 62
   256
176
     0
 40
1.0
176
     0
 90
        2
176
     1
  1
strokes_ogs.tif
176
     1
290
     0
176
     1
 40
1.0
176
     1
 40
1.0
176
     1
  0
VISUALSTYLE
  5
3F
102
{ACAD_REACTORS
330
2A
102
}
330
2A
100
AcDbVisualStyle
  2

 70
    24
177
     3
291
     0
 70
    58
 90
        1
176
     1
 90
        2
176
     1
 90
        2
176
     1
 90
        0
176
     1
 40
0.6
176
     1
 40
30.0
176
     1
 62
     7
420
 16777215
176
     1
 90
        2
176
     1
 90
        2
176
     1
 62
     7
176
     1
 62
     7
176
     1
 90
        1
176
     1
 90
        1
176
     1
 40
40.0
176
     1
 90
       11
176
     1
 62
     7
176
     1
 40
1.0
176
     1
 90
        1
176
     1
 90
        6
176
     1
 90
        2
176
     1
 62
     7
176
     1
 90
        6
176
     1
 90
        0
176
     1
 90
        0
176
     1
290
     0
176
     1
 90
        1
176
     1
 40
0.0
176
     1
 90
        0
176
     1
290
     0
176
     1
290
     1
176
     1
290
     1
176
     1
290
     0
176
     1
290
     0
176
     1
290
     0
176
     1
290
     0
176
     1
290
     0
176
     1
290
     0
176
     1
 90
       50
176
     1
 40
0.0
176
     1
 40
1.0
176
     1
 90
        0
176
     1
 62
    18
420
        0
176
     1
 90
       50
176
     1
 90
        3
176
     1
 62
     5
420
      255
176
     1
290
     0
176
     1
 90
       50
176
     1
 90
       50
176
     1
 90
       50
176
     1
290
     0
176
     1
 90
       50
176
     1
 62
   256
176
     0
 40
1.0
176
     0
 90
        2
176
     1
  1
strokes_ogs.tif
176
     1
290
     0
176
     1
 40
1.0
176
     1
 40
1.0
176
     1
  0
VISUALSTYLE
  5
37
102
{ACAD_REACTORS
330
2A
102
}
330
2A
100
AcDbVisualStyle
  2

 70
    13
177
     3
291
     1
 70
    58
 90
        2
176
     1
 90
        2
176
     1
 90
        0
176
     1
 90
        0
176
     1
 40
0.6
176
     1
 40
30.0
176
     1
 62
     7
420
 16777215
176
     1
 90
        1
176
     1
 90
        4
176
     1
 62
     7
176
     1
 62
   257
176
     1
 90
        1
176
     1
 90
        1
176
     1
 40
1.0
176
     1
 90
       12
176
     1
 62
     7
176
     1
 40
1.0
176
     1
 90
        1
176
     1
 90
        6
176
     1
 90
        2
176
     1
 62
     7
176
     1
 90
        5
176
     1
 90
        0
176
     1
 90
        0
176
     1
290
     0
176
     1
 90
        1
176
     1
 40
0.0
176
     1
 90
        0
176
     1
290
     0
176
     1
290
     1
176
     1
290
     1
176
     1
290
     0
176
     1
290
     0
176
     1
290
     0
176
     1
290
     0
176
     1
290
     0
176
     1
290
     0
176
     1
 90
       50
176
     1
 40
0.0
176
     1
 40
1.0
176
     1
 90
        0
176
     1
 62
    18
420
        0
176
     1
 90
       50
176
     1
 90
        3
176
     1
 62
     5
420
      255
176
     1
290
     0
176
     1
 90
       50
176
     1
 90
       50
176
     1
 90
       50
176
     1
290
     0
176
     1
 90
       50
176
     1
 62
   256
176
     0
 40
1.0
176
     0
 90
        2
176
     1
  1
strokes_ogs.tif
176
     1
290
     0
176
     1
 40
1.0
176
     1
 40
1.0
176
     1
  0
VISUALSTYLE
  5
30
102
{ACAD_REACTORS
330
2A
102
}
330
2A
100
AcDbVisualStyle
  2

 70
     5
177
     3
291
     0
 70
    58
 90
        0
176
     1
 90
        2
176
     1
 90
        0
176
     1
 90
        0
176
     1
 40
0.6
176
     1
 40
30.0
176
     1
 62
     7
420
 16777215
176
     1
 90
        1
176
     1
 90
        4
176
     1
 62
     7
176
     1
 62
   257
176
     1
 90
        1
176
     1
 90
        1
176
     1
 40
1.0
176
     1
 90
        0
176
     1
 62
   257
176
     1
 40
1.0
176
     1
 90
        1
176
     1
 90
        6
176
     1
 90
        2
176
     1
 62
     7
176
     1
 90
        3
176
     1
 90
        0
176
     1
 90
        0
176
     1
290
     0
176
     1
 90
        1
176
     1
 40
0.0
176
     1
 90
        0
176
     1
290
     0
176
     1
290
     1
176
     1
290
     1
176
     1
290
     0
176
     1
290
     0
176
     1
290
     0
176
     1
290
     0
176
     1
290
     0
176
     1
290
     0
176
     1
 90
       50
176
     1
 40
0.0
176
     1
 40
1.0
176
     1
 90
        0
176
     1
 62
    18
420
        0
176
     1
 90
       50
176
     1
 90
        3
176
     1
 62
     5
420
      255
176
     1
290
     0
176
     1
 90
       50
176
     1
 90
       50
176
     1
 90
       50
176
     1
290
     0
176
     1
 90
       50
176
     1
 62
   256
176
     0
 40
1.0
176
     0
 90
        2
176
     1
  1
strokes_ogs.tif
176
     1
290
     0
176
     1
 40
1.0
176
     1
 40
1.0
176
     1
  0
VISUALSTYLE
  5
40
102
{ACAD_REACTORS
330
2A
102
}
330
2A
100
AcDbVisualStyle
  2

 70
    25
177
     3
291
     0
 70
    58
 90
        2
176
     1
 90
        2
176
     1
 90
        1
176
     1
 90
        1
176
     1
 40
0.5
176
     1
 40
30.0
176
     1
 62
     7
420
 16777215
176
     1
 90
        1
176
     1
 90
        0
176
     1
 62
     7
176
     1
 62
   257
176
     1
 90
        1
176
     1
 90
        1
176
     1
 40
1.0
176
     1
 90
        8
176
     1
 62
     7
176
     1
 40
1.0
176
     1
 90
        1
176
     1
 90
        6
176
     1
 90
        2
176
     1
 62
     7
176
     1
 90
        3
176
     1
 90
        0
176
     1
 90
        0
176
     1
290
     0
176
     1
 90
       13
176
     1
 40
0.0
176
     1
 90
        0
176
     1
290
     0
176
     1
290
     1
176
     1
290
     1
176
     1
290
     0
176
     1
290
     0
176
     1
290
     0
176
     1
290
     0
176
     1
290
     0
176
     1
290
     0
176
     1
 90
       50
176
     1
 40
0.0
176
     1
 40
1.0
176
     1
 90
        0
176
     1
 62
    18
420
        0
176
     1
 90
       50
176
     1
 90
        3
176
     1
 62
     5
420
      255
176
     1
290
     0
176
     1
 90
       50
176
     1
 90
       50
176
     1
 90
       50
176
     1
290
     0
176
     1
 90
       50
176
     1
 62
   256
176
     0
 40
1.0
176
     0
 90
        2
176
     1
  1
strokes_ogs.tif
176
     1
290
     0
176
     1
 40
1.0
176
     1
 40
1.0
176
     1
  0
DICTIONARYVAR
  5
7E
102
{ACAD_REACTORS
330
7D
102
}
330
7D
100
DictionaryVariables
280
     0
  1
1:1
  0
DICTIONARYVAR
  5
B7
102
{ACAD_REACTORS
330
7D
102
}
330
7D
100
DictionaryVariables
280
     0
  1
STANDARD
  0
DICTIONARYVAR
  5
B6
102
{ACAD_REACTORS
330
7D
102
}
330
7D
100
DictionaryVariables
280
     0
  1
STANDARD
  0
DICTIONARYVAR
  5
C6
102
{ACAD_REACTORS
330
7D
102
}
330
7D
100
DictionaryVariables
280
     0
  1
Imperial24
  0
DICTIONARYVAR
  5
C7
102
{ACAD_REACTORS
330
7D
102
}
330
7D
100
DictionaryVariables
280
     0
  1
Imperial24
  0
DICTIONARYVAR
  5
C8
102
{ACAD_REACTORS
330
7D
102
}
330
7D
100
DictionaryVariables
280
     0
  1
1
  0
DICTIONARYVAR
  5
C9
102
{ACAD_REACTORS
330
7D
102
}
330
7D
100
DictionaryVariables
280
     0
  1
15
  0
DICTIONARY
  5
CE
330
BE
100
AcDbDictionary
280
     1
281
     1
  3
ACAD_XREC_ROUNDTRIP
360
CF
  0
DICTIONARY
  5
CC
330
BD
100
AcDbDictionary
280
     1
281
     1
  3
ACAD_XREC_ROUNDTRIP
360
CD
  0
DICTIONARY
  5
B0
330
6A
100
AcDbDictionary
280
     1
281
     1
  3
ACAD_ROUNDTRIP_2008_TABLESTYLE_CELLSTYLEMAP
360
CB
  0
XRECORD
  5
CF
102
{ACAD_REACTORS
330
CE
102
}
330
CE
100
AcDbXrecord
280
     1
102
DISPLAYNAME
  1
Imperial24
102
FLAGS
 90
        0
  0
XRECORD
  5
CD
102
{ACAD_REACTORS
330
CC
102
}
330
CC
100
AcDbXrecord
280
     1
102
DISPLAYNAME
  1
Imperial24
102
FLAGS
 90
        0
  0
CELLSTYLEMAP
  5
CB
102
{ACAD_REACTORS
330
B0
102
}
330
B0
100
AcDbCellStyleMap
 90
        3
300
CELLSTYLE
  1
TABLEFORMAT_BEGIN
 90
        5
170
     1
 91
        0
 92
    32768
 62
   257
 93
        1
300
CONTENTFORMAT
  1
CONTENTFORMAT_BEGIN
 90
        0
 91
        0
 92
        4
 93
        0
300

 40
0.0
140
1.0
 94
        5
 62
     0
340
11
144
0.25
309
CONTENTFORMAT_END
171
     1
301
MARGIN
  1
CELLMARGIN_BEGIN
 40
0.06
 40
0.06
 40
0.06
 40
0.06
 40
0.18
 40
0.18
309
CELLMARGIN_END
 94
        6
 95
        1
302
GRIDFORMAT
  1
GRIDFORMAT_BEGIN
 90
        0
 91
        1
 62
     0
 92
       -2
340
14
 93
        0
 40
0.045
309
GRIDFORMAT_END
 95
        2
302
GRIDFORMAT
  1
GRIDFORMAT_BEGIN
 90
        0
 91
        1
 62
     0
 92
       -2
340
14
 93
        0
 40
0.045
309
GRIDFORMAT_END
 95
        4
302
GRIDFORMAT
  1
GRIDFORMAT_BEGIN
 90
        0
 91
        1
 62
     0
 92
       -2
340
14
 93
        0
 40
0.045
309
GRIDFORMAT_END
 95
        8
302
GRIDFORMAT
  1
GRIDFORMAT_BEGIN
 90
        0
 91
        1
 62
     0
 92
       -2
340
14
 93
        0
 40
0.045
309
GRIDFORMAT_END
 95
       16
302
GRIDFORMAT
  1
GRIDFORMAT_BEGIN
 90
        0
 91
        1
 62
     0
 92
       -2
340
14
 93
        0
 40
0.045
309
GRIDFORMAT_END
 95
       32
302
GRIDFORMAT
  1
GRIDFORMAT_BEGIN
 90
        0
 91
        1
 62
     0
 92
       -2
340
14
 93
        0
 40
0.045
309
GRIDFORMAT_END
309
TABLEFORMAT_END
  1
CELLSTYLE_BEGIN
 90
        1
 91
        1
300
_TITLE
309
CELLSTYLE_END
300
CELLSTYLE
  1
TABLEFORMAT_BEGIN
 90
        5
170
     1
 91
        0
 92
        0
 62
   257
 93
        1
300
CONTENTFORMAT
  1
CONTENTFORMAT_BEGIN
 90
        0
 91
        0
 92
        4
 93
        0
300

 40
0.0
140
1.0
 94
        5
 62
     0
340
11
144
0.18
309
CONTENTFORMAT_END
171
     1
301
MARGIN
  1
CELLMARGIN_BEGIN
 40
0.06
 40
0.06
 40
0.06
 40
0.06
 40
0.18
 40
0.18
309
CELLMARGIN_END
 94
        6
 95
        1
302
GRIDFORMAT
  1
GRIDFORMAT_BEGIN
 90
        0
 91
        1
 62
     0
 92
       -2
340
14
 93
        0
 40
0.045
309
GRIDFORMAT_END
 95
        2
302
GRIDFORMAT
  1
GRIDFORMAT_BEGIN
 90
        0
 91
        1
 62
     0
 92
       -2
340
14
 93
        0
 40
0.045
309
GRIDFORMAT_END
 95
        4
302
GRIDFORMAT
  1
GRIDFORMAT_BEGIN
 90
        0
 91
        1
 62
     0
 92
       -2
340
14
 93
        0
 40
0.045
309
GRIDFORMAT_END
 95
        8
302
GRIDFORMAT
  1
GRIDFORMAT_BEGIN
 90
        0
 91
        1
 62
     0
 92
       -2
340
14
 93
        0
 40
0.045
309
GRIDFORMAT_END
 95
       16
302
GRIDFORMAT
  1
GRIDFORMAT_BEGIN
 90
        0
 91
        1
 62
     0
 92
       -2
340
14
 93
        0
 40
0.045
309
GRIDFORMAT_END
 95
       32
302
GRIDFORMAT
  1
GRIDFORMAT_BEGIN
 90
        0
 91
        1
 62
     0
 92
       -2
340
14
 93
        0
 40
0.045
309
GRIDFORMAT_END
309
TABLEFORMAT_END
  1
CELLSTYLE_BEGIN
 90
        2
 91
        1
300
_HEADER
309
CELLSTYLE_END
300
CELLSTYLE
  1
TABLEFORMAT_BEGIN
 90
        5
170
     1
 91
        0
 92
        0
 62
   257
 93
        1
300
CONTENTFORMAT
  1
CONTENTFORMAT_BEGIN
 90
        0
 91
        0
 92
        4
 93
        0
300

 40
0.0
140
1.0
 94
        2
 62
     0
340
11
144
0.18
309
CONTENTFORMAT_END
171
     1
301
MARGIN
  1
CELLMARGIN_BEGIN
 40
0.06
 40
0.06
 40
0.06
 40
0.06
 40
0.18
 40
0.18
309
CELLMARGIN_END
 94
        6
 95
        1
302
GRIDFORMAT
  1
GRIDFORMAT_BEGIN
 90
        0
 91
        1
 62
     0
 92
       -2
340
14
 93
        0
 40
0.045
309
GRIDFORMAT_END
 95
        2
302
GRIDFORMAT
  1
GRIDFORMAT_BEGIN
 90
        0
 91
        1
 62
     0
 92
       -2
340
14
 93
        0
 40
0.045
309
GRIDFORMAT_END
 95
        4
302
GRIDFORMAT
  1
GRIDFORMAT_BEGIN
 90
        0
 91
        1
 62
     0
 92
       -2
340
14
 93
        0
 40
0.045
309
GRIDFORMAT_END
 95
        8
302
GRIDFORMAT
  1
GRIDFORMAT_BEGIN
 90
        0
 91
        1
 62
     0
 92
       -2
340
14
 93
        0
 40
0.045
309
GRIDFORMAT_END
 95
       16
302
GRIDFORMAT
  1
GRIDFORMAT_BEGIN
 90
        0
 91
        1
 62
     0
 92
       -2
340
14
 93
        0
 40
0.045
309
GRIDFORMAT_END
 95
       32
302
GRIDFORMAT
  1
GRIDFORMAT_BEGIN
 90
        0
 91
        1
 62
     0
 92
       -2
340
14
 93
        0
 40
0.045
309
GRIDFORMAT_END
309
TABLEFORMAT_END
  1
CELLSTYLE_BEGIN
 90
        3
 91
        2
300
_DATA
309
CELLSTYLE_END
  0
ENDSEC
  0
EOF
