  0
SECTION
  2
HEADER
  9
$ACADVER
  1
AC1027
  9
$ACADMAINTVER
 70
   105
  9
$DWGCODEPAGE
  3
ANSI_1252
  9
$LASTSAVEDBY
  1
tim
  9
$REQUIREDVERSIONS
160
                 0
  9
$INSBASE
 10
0.0
 20
0.0
 30
0.0
  9
$EXTMIN
 10
0.0793932432636194
 20
2.633659286876108
 30
0.0
  9
$EXTMAX
 10
35.8500354457645
 20
31.72572841770613
 30
0.0
  9
$LIMMIN
 10
0.0
 20
0.0
  9
$LIMMAX
 10
12.0
 20
9.0
  9
$ORTHOMODE
 70
     1
  9
$REGENMODE
 70
     1
  9
$FILLMODE
 70
     1
  9
$QTEXTMODE
 70
     0
  9
$MIRRTEXT
 70
     1
  9
$LTSCALE
 40
1.0
  9
$ATTMODE
 70
     1
  9
$TEXTSIZE
 40
0.2
  9
$TRACEWID
 40
0.05
  9
$TEXTSTYLE
  7
Standard
  9
$CLAYER
  8
0
  9
$CELTYPE
  6
ByLayer
  9
$CECOLOR
 62
   256
  9
$CELTSCALE
 40
1.0
  9
$DISPSILH
 70
     0
  9
$DIMSCALE
 40
1.0
  9
$DIMASZ
 40
0.18
  9
$DIMEXO
 40
0.0625
  9
$DIMDLI
 40
0.38
  9
$DIMRND
 40
0.0
  9
$DIMDLE
 40
0.0
  9
$DIMEXE
 40
0.18
  9
$DIMTP
 40
0.0
  9
$DIMTM
 40
0.0
  9
$DIMTXT
 40
0.18
  9
$DIMCEN
 40
0.09
  9
$DIMTSZ
 40
0.0
  9
$DIMTOL
 70
     0
  9
$DIMLIM
 70
     0
  9
$DIMTIH
 70
     1
  9
$DIMTOH
 70
     1
  9
$DIMSE1
 70
     0
  9
$DIMSE2
 70
     0
  9
$DIMTAD
 70
     0
  9
$DIMZIN
 70
     0
  9
$DIMBLK
  1

  9
$DIMASO
 70
     1
  9
$DIMSHO
 70
     1
  9
$DIMPOST
  1

  9
$DIMAPOST
  1

  9
$DIMALT
 70
     0
  9
$DIMALTD
 70
     2
  9
$DIMALTF
 40
25.4
  9
$DIMLFAC
 40
1.0
  9
$DIMTOFL
 70
     0
  9
$DIMTVP
 40
0.0
  9
$DIMTIX
 70
     0
  9
$DIMSOXD
 70
     0
  9
$DIMSAH
 70
     0
  9
$DIMBLK1
  1

  9
$DIMBLK2
  1

  9
$DIMSTYLE
  2
Standard
  9
$DIMCLRD
 70
     0
  9
$DIMCLRE
 70
     0
  9
$DIMCLRT
 70
     0
  9
$DIMTFAC
 40
1.0
  9
$DIMGAP
 40
0.09
  9
$DIMJUST
 70
     0
  9
$DIMSD1
 70
     0
  9
$DIMSD2
 70
     0
  9
$DIMTOLJ
 70
     1
  9
$DIMTZIN
 70
     0
  9
$DIMALTZ
 70
     0
  9
$DIMALTTZ
 70
     0
  9
$DIMUPT
 70
     0
  9
$DIMDEC
 70
     4
  9
$DIMTDEC
 70
     4
  9
$DIMALTU
 70
     2
  9
$DIMALTTD
 70
     2
  9
$DIMTXSTY
  7
Standard
  9
$DIMAUNIT
 70
     0
  9
$DIMADEC
 70
     0
  9
$DIMALTRND
 40
0.0
  9
$DIMAZIN
 70
     0
  9
$DIMDSEP
 70
    46
  9
$DIMATFIT
 70
     3
  9
$DIMFRAC
 70
     0
  9
$DIMLDRBLK
  1

  9
$DIMLUNIT
 70
     2
  9
$DIMLWD
 70
    -2
  9
$DIMLWE
 70
    -2
  9
$DIMTMOVE
 70
     0
  9
$DIMFXL
 40
1.0
  9
$DIMFXLON
 70
     0
  9
$DIMJOGANG
 40
0.7853981633974483
  9
$DIMTFILL
 70
     0
  9
$DIMTFILLCLR
 70
     0
  9
$DIMARCSYM
 70
     0
  9
$DIMLTYPE
  6

  9
$DIMLTEX1
  6

  9
$DIMLTEX2
  6

  9
$DIMTXTDIRECTION
 70
     0
  9
$LUNITS
 70
     2
  9
$LUPREC
 70
     4
  9
$SKETCHINC
 40
0.1
  9
$FILLETRAD
 40
0.5
  9
$AUNITS
 70
     0
  9
$AUPREC
 70
     0
  9
$MENU
  1
.
  9
$ELEVATION
 40
0.0
  9
$PELEVATION
 40
0.0
  9
$THICKNESS
 40
0.0
  9
$LIMCHECK
 70
     0
  9
$CHAMFERA
 40
0.0
  9
$CHAMFERB
 40
0.0
  9
$CHAMFERC
 40
0.0
  9
$CHAMFERD
 40
0.0
  9
$SKPOLY
 70
     0
  9
$TDCREATE
 40
2457752.538927708
  9
$TDUCREATE
 40
2457752.538927708
  9
$TDUPDATE
 40
2457758.869864386
  9
$TDUUPDATE
 40
2457758.869864386
  9
$TDINDWG
 40
0.0132895486
  9
$TDUSRTIMER
 40
0.0132868866
  9
$USRTIMER
 70
     1
  9
$ANGBASE
 50
0.0
  9
$ANGDIR
 70
     0
  9
$PDMODE
 70
     0
  9
$PDSIZE
 40
0.0
  9
$PLINEWID
 40
0.0
  9
$SPLFRAME
 70
     0
  9
$SPLINETYPE
 70
     6
  9
$SPLINESEGS
 70
     8
  9
$HANDSEED
  5
485
  9
$SURFTAB1
 70
     6
  9
$SURFTAB2
 70
     6
  9
$SURFTYPE
 70
     6
  9
$SURFU
 70
     6
  9
$SURFV
 70
     6
  9
$UCSBASE
  2

  9
$UCSNAME
  2

  9
$UCSORG
 10
0.0
 20
0.0
 30
0.0
  9
$UCSXDIR
 10
1.0
 20
0.0
 30
0.0
  9
$UCSYDIR
 10
0.0
 20
1.0
 30
0.0
  9
$UCSORTHOREF
  2

  9
$UCSORTHOVIEW
 70
     0
  9
$UCSORGTOP
 10
0.0
 20
0.0
 30
0.0
  9
$UCSORGBOTTOM
 10
0.0
 20
0.0
 30
0.0
  9
$UCSORGLEFT
 10
0.0
 20
0.0
 30
0.0
  9
$UCSORGRIGHT
 10
0.0
 20
0.0
 30
0.0
  9
$UCSORGFRONT
 10
0.0
 20
0.0
 30
0.0
  9
$UCSORGBACK
 10
0.0
 20
0.0
 30
0.0
  9
$PUCSBASE
  2

  9
$PUCSNAME
  2

  9
$PUCSORG
 10
0.0
 20
0.0
 30
0.0
  9
$PUCSXDIR
 10
1.0
 20
0.0
 30
0.0
  9
$PUCSYDIR
 10
0.0
 20
1.0
 30
0.0
  9
$PUCSORTHOREF
  2

  9
$PUCSORTHOVIEW
 70
     0
  9
$PUCSORGTOP
 10
0.0
 20
0.0
 30
0.0
  9
$PUCSORGBOTTOM
 10
0.0
 20
0.0
 30
0.0
  9
$PUCSORGLEFT
 10
0.0
 20
0.0
 30
0.0
  9
$PUCSORGRIGHT
 10
0.0
 20
0.0
 30
0.0
  9
$PUCSORGFRONT
 10
0.0
 20
0.0
 30
0.0
  9
$PUCSORGBACK
 10
0.0
 20
0.0
 30
0.0
  9
$USERI1
 70
     0
  9
$USERI2
 70
     0
  9
$USERI3
 70
     0
  9
$USERI4
 70
     0
  9
$USERI5
 70
     0
  9
$USERR1
 40
0.0
  9
$USERR2
 40
0.0
  9
$USERR3
 40
0.0
  9
$USERR4
 40
0.0
  9
$USERR5
 40
0.0
  9
$WORLDVIEW
 70
     1
  9
$SHADEDGE
 70
     3
  9
$SHADEDIF
 70
    70
  9
$TILEMODE
 70
     1
  9
$MAXACTVP
 70
    64
  9
$PINSBASE
 10
0.0
 20
0.0
 30
0.0
  9
$PLIMCHECK
 70
     0
  9
$PEXTMIN
 10
1.000000000000000E+20
 20
1.000000000000000E+20
 30
1.000000000000000E+20
  9
$PEXTMAX
 10
-1.000000000000000E+20
 20
-1.000000000000000E+20
 30
-1.000000000000000E+20
  9
$PLIMMIN
 10
0.0
 20
0.0
  9
$PLIMMAX
 10
12.0
 20
9.0
  9
$UNITMODE
 70
     0
  9
$VISRETAIN
 70
     1
  9
$PLINEGEN
 70
     0
  9
$PSLTSCALE
 70
     1
  9
$TREEDEPTH
 70
  3020
  9
$CMLSTYLE
  2
Standard
  9
$CMLJUST
 70
     0
  9
$CMLSCALE
 40
1.0
  9
$PROXYGRAPHICS
 70
     1
  9
$MEASUREMENT
 70
     0
  9
$CELWEIGHT
370
    -1
  9
$ENDCAPS
280
     0
  9
$JOINSTYLE
280
     0
  9
$LWDISPLAY
290
     0
  9
$INSUNITS
 70
     4
  9
$HYPERLINKBASE
  1

  9
$STYLESHEET
  1

  9
$XEDIT
290
     1
  9
$CEPSNTYPE
380
     0
  9
$PSTYLEMODE
290
     1
  9
$FINGERPRINTGUID
  2
{A763DF3C-C5D5-43E4-B5C5-D26E97AA6556}
  9
$VERSIONGUID
  2
{7FFBEEF3-445A-43A1-8EDA-BA5348D3DDF3}
  9
$EXTNAMES
290
     1
  9
$PSVPSCALE
 40
0.0
  9
$OLESTARTUP
290
     0
  9
$SORTENTS
280
   127
  9
$INDEXCTL
280
     0
  9
$HIDETEXT
280
     1
  9
$XCLIPFRAME
280
     2
  9
$HALOGAP
280
     0
  9
$OBSCOLOR
 70
   257
  9
$OBSLTYPE
280
     0
  9
$INTERSECTIONDISPLAY
280
     0
  9
$INTERSECTIONCOLOR
 70
   257
  9
$DIMASSOC
280
     2
  9
$PROJECTNAME
  1

  9
$CAMERADISPLAY
290
     0
  9
$LENSLENGTH
 40
50.0
  9
$CAMERAHEIGHT
 40
0.0
  9
$STEPSPERSEC
 40
2.0
  9
$STEPSIZE
 40
6.0
  9
$3DDWFPREC
 40
2.0
  9
$PSOLWIDTH
 40
0.25
  9
$PSOLHEIGHT
 40
4.0
  9
$LOFTANG1
 40
1.570796326794897
  9
$LOFTANG2
 40
1.570796326794897
  9
$LOFTMAG1
 40
0.0
  9
$LOFTMAG2
 40
0.0
  9
$LOFTPARAM
 70
     7
  9
$LOFTNORMALS
280
     1
  9
$LATITUDE
 40
37.795
  9
$LONGITUDE
 40
-122.394
  9
$NORTHDIRECTION
 40
0.0
  9
$TIMEZONE
 70
 -8000
  9
$LIGHTGLYPHDISPLAY
280
     1
  9
$TILEMODELIGHTSYNCH
280
     1
  9
$CMATERIAL
347
44
  9
$SOLIDHIST
280
     0
  9
$SHOWHIST
280
     1
  9
$DWFFRAME
280
     2
  9
$DGNFRAME
280
     2
  9
$REALWORLDSCALE
290
     1
  9
$INTERFERECOLOR
 62
   256
  9
$INTERFEREOBJVS
345
33
  9
$INTERFEREVPVS
346
30
  9
$CSHADOW
280
     0
  9
$SHADOWPLANELOCATION
 40
0.0
  0
ENDSEC
  0
SECTION
  2
CLASSES
  0
CLASS
  1
ACDBDICTIONARYWDFLT
  2
AcDbDictionaryWithDefault
  3
ObjectDBX Classes
 90
        0
 91
        1
280
     0
281
     0
  0
CLASS
  1
VISUALSTYLE
  2
AcDbVisualStyle
  3
ObjectDBX Classes
 90
     4095
 91
       24
280
     0
281
     0
  0
CLASS
  1
MATERIAL
  2
AcDbMaterial
  3
ObjectDBX Classes
 90
     1153
 91
        3
280
     0
281
     0
  0
CLASS
  1
SCALE
  2
AcDbScale
  3
ObjectDBX Classes
 90
     1153
 91
       33
280
     0
281
     0
  0
CLASS
  1
TABLESTYLE
  2
AcDbTableStyle
  3
ObjectDBX Classes
 90
     4095
 91
        1
280
     0
281
     0
  0
CLASS
  1
MLEADERSTYLE
  2
AcDbMLeaderStyle
  3
ACDB_MLEADERSTYLE_CLASS
 90
     4095
 91
        1
280
     0
281
     0
  0
CLASS
  1
SUN
  2
AcDbSun
  3
SCENEOE
 90
     1153
 91
        1
280
     0
281
     0
  0
CLASS
  1
DICTIONARYVAR
  2
AcDbDictionaryVar
  3
ObjectDBX Classes
 90
        0
 91
        7
280
     0
281
     0
  0
CLASS
  1
CELLSTYLEMAP
  2
AcDbCellStyleMap
  3
ObjectDBX Classes
 90
     1152
 91
        2
280
     0
281
     0
  0
CLASS
  1
ACDBSECTIONVIEWSTYLE
  2
AcDbSectionViewStyle
  3
ObjectDBX Classes
 90
     1025
 91
        1
280
     0
281
     0
  0
CLASS
  1
ACDBDETAILVIEWSTYLE
  2
AcDbDetailViewStyle
  3
ObjectDBX Classes
 90
     1025
 91
        1
280
     0
281
     0
  0
CLASS
  1
SORTENTSTABLE
  2
AcDbSortentsTable
  3
ObjectDBX Classes
 90
        0
 91
        1
280
     0
281
     0
  0
ENDSEC
  0
SECTION
  2
TABLES
  0
TABLE
  2
VPORT
  5
8
330
0
100
AcDbSymbolTable
 70
     1
  0
VPORT
  5
29
330
8
100
AcDbSymbolTableRecord
100
AcDbViewportTableRecord
  2
*Active
 70
     0
 10
0.0
 20
0.0
 11
1.0
 21
1.0
 12
23.14265555037128
 22
12.02721343120178
 13
0.0
 23
0.0
 14
0.5
 24
0.5
 15
0.5
 25
0.5
 16
0.0
 26
0.0
 36
1.0
 17
0.0
 27
0.0
 37
0.0
 40
53.90417314972623
 41
1.38125
 42
50.0
 43
0.0
 44
0.0
 50
0.0
 51
0.0
 71
     0
 72
   100
 73
     1
 74
     3
 75
     0
 76
     0
 77
     0
 78
     0
281
     0
 65
     1
110
0.0
120
0.0
130
0.0
111
1.0
121
0.0
131
0.0
112
0.0
122
1.0
132
0.0
 79
     0
146
0.0
348
2F
 60
     3
 61
     5
292
     1
282
     1
141
0.0
142
0.0
 63
   250
361
6D
1001
ACAD_NAV_VCDISPLAY
1070
     3
  0
ENDTAB
  0
TABLE
  2
LTYPE
  5
5
330
0
100
AcDbSymbolTable
 70
     1
  0
LTYPE
  5
14
330
5
100
AcDbSymbolTableRecord
100
AcDbLinetypeTableRecord
  2
ByBlock
 70
     0
  3

 72
    65
 73
     0
 40
0.0
  0
LTYPE
  5
15
330
5
100
AcDbSymbolTableRecord
100
AcDbLinetypeTableRecord
  2
ByLayer
 70
     0
  3

 72
    65
 73
     0
 40
0.0
  0
LTYPE
  5
16
330
5
100
AcDbSymbolTableRecord
100
AcDbLinetypeTableRecord
  2
Continuous
 70
     0
  3
Solid line
 72
    65
 73
     0
 40
0.0
  0
ENDTAB
  0
TABLE
  2
LAYER
  5
2
330
0
100
AcDbSymbolTable
 70
     2
  0
LAYER
  5
10
102
{ACAD_XDICTIONARY
360
463
102
}
330
2
100
AcDbSymbolTableRecord
100
AcDbLayerTableRecord
  2
0
 70
     0
 62
     7
  6
Continuous
370
    -3
390
F
347
46
348
0
  0
LAYER
  5
6F
102
{ACAD_XDICTIONARY
360
465
102
}
330
2
100
AcDbSymbolTableRecord
100
AcDbLayerTableRecord
  2
Layer 1
 70
     0
 62
     7
  6
Continuous
370
    -3
390
F
347
46
348
0
  0
ENDTAB
  0
TABLE
  2
STYLE
  5
3
330
0
100
AcDbSymbolTable
 70
     1
  0
STYLE
  5
11
330
3
100
AcDbSymbolTableRecord
100
AcDbTextStyleTableRecord
  2
Standard
 70
     0
 40
0.0
 41
1.0
 50
0.0
 71
     0
 42
0.2
  3
txt
  4

  0
ENDTAB
  0
TABLE
  2
VIEW
  5
6
330
0
100
AcDbSymbolTable
 70
     0
  0
ENDTAB
  0
TABLE
  2
UCS
  5
7
330
0
100
AcDbSymbolTable
 70
     0
  0
ENDTAB
  0
TABLE
  2
APPID
  5
9
330
0
100
AcDbSymbolTable
 70
     5
  0
APPID
  5
12
330
9
100
AcDbSymbolTableRecord
100
AcDbRegAppTableRecord
  2
ACAD
 70
     0
  0
APPID
  5
6E
330
9
100
AcDbSymbolTableRecord
100
AcDbRegAppTableRecord
  2
ODA
 70
     0
  0
APPID
  5
C7
330
9
100
AcDbSymbolTableRecord
100
AcDbRegAppTableRecord
  2
ACAD_MLEADERVER
 70
     0
  0
APPID
  5
DC
330
9
100
AcDbSymbolTableRecord
100
AcDbRegAppTableRecord
  2
ACAD_EXEMPT_FROM_CAD_STANDARDS
 70
     0
  0
APPID
  5
46B
330
9
100
AcDbSymbolTableRecord
100
AcDbRegAppTableRecord
  2
ACAD_NAV_VCDISPLAY
 70
     0
  0
ENDTAB
  0
TABLE
  2
DIMSTYLE
  5
A
330
0
100
AcDbSymbolTable
 70
     1
100
AcDbDimStyleTable
 71
     1
340
27
  0
DIMSTYLE
105
27
330
A
100
AcDbSymbolTableRecord
100
AcDbDimStyleTableRecord
  2
Standard
 70
     0
340
11
  0
ENDTAB
  0
TABLE
  2
BLOCK_RECORD
  5
1
330
0
100
AcDbSymbolTable
 70
     1
  0
BLOCK_RECORD
  5
1F
102
{ACAD_XDICTIONARY
360
FF
102
}
330
1
100
AcDbSymbolTableRecord
100
AcDbBlockTableRecord
  2
*Model_Space
340
22
 70
     0
280
     1
281
     0
  0
BLOCK_RECORD
  5
1B
330
1
100
AcDbSymbolTableRecord
100
AcDbBlockTableRecord
  2
*Paper_Space
340
1E
 70
     0
280
     1
281
     0
  0
BLOCK_RECORD
  5
23
330
1
100
AcDbSymbolTableRecord
100
AcDbBlockTableRecord
  2
*Paper_Space0
340
26
 70
     0
280
     1
281
     0
  0
ENDTAB
  0
ENDSEC
  0
SECTION
  2
BLOCKS
  0
BLOCK
  5
20
330
1F
100
AcDbEntity
  8
0
100
AcDbBlockBegin
  2
*Model_Space
 70
     0
 10
0.0
 20
0.0
 30
0.0
  3
*Model_Space
  1

  0
ENDBLK
  5
21
330
1F
100
AcDbEntity
  8
0
100
AcDbBlockEnd
  0
BLOCK
  5
1C
330
1B
100
AcDbEntity
 67
     1
  8
0
100
AcDbBlockBegin
  2
*Paper_Space
 70
     0
 10
0.0
 20
0.0
 30
0.0
  3
*Paper_Space
  1

  0
ENDBLK
  5
1D
330
1B
100
AcDbEntity
 67
     1
  8
0
100
AcDbBlockEnd
  0
BLOCK
  5
24
330
23
100
AcDbEntity
 67
     1
  8
0
100
AcDbBlockBegin
  2
*Paper_Space0
 70
     0
 10
0.0
 20
0.0
 30
0.0
  3
*Paper_Space0
  1

  0
ENDBLK
  5
25
330
23
100
AcDbEntity
 67
     1
  8
0
100
AcDbBlockEnd
  0
ENDSEC
  0
SECTION
  2
ENTITIES
  0
SPLINE
  5
1E6
330
1F
100
AcDbEntity
  8
Layer 1
100
AcDbSpline
210
0.0
220
0.0
230
1.0
 70
    11
 71
     3
 72
   112
 73
   108
 74
     0
 42
0.000000001
 43
0.0000000001
 40
0.0
 40
0.0
 40
0.0
 40
0.0
 40
0.00000001
 40
0.0357142857142857
 40
0.0357142857142857
 40
0.0357142857142857
 40
0.0357142957142857
 40
0.0714285714285714
 40
0.0714285714285714
 40
0.0714285714285714
 40
0.0714285814285714
 40
0.1071428571428571
 40
0.1071428571428571
 40
0.1071428571428571
 40
0.1071428671428571
 40
0.1428571428571429
 40
0.1428571428571429
 40
0.1428571428571429
 40
0.1428571528571429
 40
0.1785714285714286
 40
0.1785714285714286
 40
0.1785714285714286
 40
0.1785714385714286
 40
0.2142857142857143
 40
0.2142857142857143
 40
0.2142857142857143
 40
0.2142857242857143
 40
0.25
 40
0.25
 40
0.25
 40
0.25000001
 40
0.2857142857142858
 40
0.2857142857142858
 40
0.2857142857142858
 40
0.2857142957142859
 40
0.3214285714285715
 40
0.3214285714285715
 40
0.3214285714285715
 40
0.3214285814285716
 40
0.3571428571428571
 40
0.3571428571428571
 40
0.3571428571428571
 40
0.3571428671428571
 40
0.3928571428571428
 40
0.3928571428571428
 40
0.3928571428571428
 40
0.3928571528571428
 40
0.4285714285714289
 40
0.4285714285714289
 40
0.4285714285714289
 40
0.4285714385714287
 40
0.4642857142857145
 40
0.4642857142857145
 40
0.4642857142857145
 40
0.4642857242857146
 40
0.5
 40
0.5
 40
0.5
 40
0.5000000100000001
 40
0.5357142857142858
 40
0.5357142857142858
 40
0.5357142857142858
 40
0.5357142957142857
 40
0.5714285714285713
 40
0.5714285714285713
 40
0.5714285714285713
 40
0.5714285814285715
 40
0.6071428571428572
 40
0.6071428571428572
 40
0.6071428571428572
 40
0.6071428671428573
 40
0.6428571428571433
 40
0.6428571428571433
 40
0.6428571428571433
 40
0.642857152857143
 40
0.6785714285714285
 40
0.6785714285714285
 40
0.6785714285714285
 40
0.6785714385714287
 40
0.7142857142857145
 40
0.7142857142857145
 40
0.7142857142857145
 40
0.7142857242857144
 40
0.75
 40
0.75
 40
0.75
 40
0.7500000100000001
 40
0.7857142857142858
 40
0.7857142857142858
 40
0.7857142857142858
 40
0.7857142957142857
 40
0.8214285714285713
 40
0.8214285714285713
 40
0.8214285714285713
 40
0.8214285814285714
 40
0.8571428571428571
 40
0.8571428571428571
 40
0.8571428571428571
 40
0.857142867142857
 40
0.892857142857143
 40
0.892857142857143
 40
0.892857142857143
 40
0.8928571528571429
 40
0.9642857142857142
 40
0.9642857142857142
 40
0.9642857142857142
 40
1.0
 40
1.0
 40
1.0
 40
1.0
 10
12.8305605044263
 20
15.00350913011899
 30
0.0
 10
12.8305605044263
 20
15.00350913011899
 30
0.0
 10
12.8305605044263
 20
15.00350913011899
 30
0.0
 10
12.21969161797593
 20
14.69809742789918
 30
0.0
 10
12.21969161797593
 20
14.69809742789918
 30
0.0
 10
12.21969161797593
 20
14.69809742789918
 30
0.0
 10
12.21969161797593
 20
14.69809742789918
 30
0.0
 10
10.7689215995833
 20
13.70543738250113
 30
0.0
 10
10.7689215995833
 20
13.70543738250113
 30
0.0
 10
10.7689215995833
 20
13.70543738250113
 30
0.0
 10
10.7689215995833
 20
13.70543738250113
 30
0.0
 10
10.69257246419591
 20
13.5527239510561
 30
0.0
 10
10.69257246419591
 20
13.5527239510561
 30
0.0
 10
10.69257246419591
 20
13.5527239510561
 30
0.0
 10
10.69257246419591
 20
13.5527239510561
 30
0.0
 10
10.84525557430043
 20
13.1709327921084
 30
0.0
 10
10.84525557430043
 20
13.1709327921084
 30
0.0
 10
10.84525557430043
 20
13.1709327921084
 30
0.0
 10
10.84525557430043
 20
13.1709327921084
 30
0.0
 10
11.150712758531
 20
12.8655210898886
 30
0.0
 10
11.150712758531
 20
12.8655210898886
 30
0.0
 10
11.150712758531
 20
12.8655210898886
 30
0.0
 10
11.150712758531
 20
12.8655210898886
 30
0.0
 10
11.53248875680842
 20
12.48371477027065
 30
0.0
 10
11.53248875680842
 20
12.48371477027065
 30
0.0
 10
11.53248875680842
 20
12.48371477027065
 30
0.0
 10
11.53248875680842
 20
12.48371477027065
 30
0.0
 10
11.60885305286607
 20
12.1782879073806
 30
0.0
 10
11.60885305286607
 20
12.1782879073806
 30
0.0
 10
11.60885305286607
 20
12.1782879073806
 30
0.0
 10
11.60885305286607
 20
12.1782879073806
 30
0.0
 10
11.22707705458863
 20
11.1856430226528
 30
0.0
 10
11.22707705458863
 20
11.1856430226528
 30
0.0
 10
11.22707705458863
 20
11.1856430226528
 30
0.0
 10
11.22707705458863
 20
11.1856430226528
 30
0.0
 10
11.22707705458863
 20
11.03294475187801
 30
0.0
 10
11.22707705458863
 20
11.03294475187801
 30
0.0
 10
11.22707705458863
 20
11.03294475187801
 30
0.0
 10
11.22707705458863
 20
11.03294475187801
 30
0.0
 10
11.37976016469316
 20
10.88021615976274
 30
0.0
 10
11.37976016469316
 20
10.88021615976274
 30
0.0
 10
11.37976016469316
 20
10.88021615976274
 30
0.0
 10
11.37976016469316
 20
10.88021615976274
 30
0.0
 10
11.76155132364085
 20
10.65113843226008
 30
0.0
 10
11.76155132364085
 20
10.65113843226008
 30
0.0
 10
11.76155132364085
 20
10.65113843226008
 30
0.0
 10
11.76155132364085
 20
10.65113843226008
 30
0.0
 10
12.52513364153624
 20
10.42207586542766
 30
0.0
 10
12.52513364153624
 20
10.42207586542766
 30
0.0
 10
12.52513364153624
 20
10.42207586542766
 30
0.0
 10
12.52513364153624
 20
10.42207586542766
 30
0.0
 10
12.67783191231102
 20
10.11666416320786
 30
0.0
 10
12.67783191231102
 20
10.11666416320786
 30
0.0
 10
12.67783191231102
 20
10.11666416320786
 30
0.0
 10
12.67783191231102
 20
10.11666416320786
 30
0.0
 10
12.67783191231102
 20
9.124004117809803
 30
0.0
 10
12.67783191231102
 20
9.124004117809803
 30
0.0
 10
12.67783191231102
 20
9.124004117809803
 30
0.0
 10
12.67783191231102
 20
9.124004117809803
 30
0.0
 10
12.8305605044263
 20
8.742228119532361
 30
0.0
 10
12.8305605044263
 20
8.742228119532361
 30
0.0
 10
12.8305605044263
 20
8.742228119532361
 30
0.0
 10
12.8305605044263
 20
8.742228119532361
 30
0.0
 10
13.05963823192896
 20
8.513135231359441
 30
0.0
 10
13.05963823192896
 20
8.513135231359441
 30
0.0
 10
13.05963823192896
 20
8.513135231359441
 30
0.0
 10
13.05963823192896
 20
8.513135231359441
 30
0.0
 10
13.89956968521174
 20
8.436786095972056
 30
0.0
 10
13.89956968521174
 20
8.436786095972056
 30
0.0
 10
13.89956968521174
 20
8.436786095972056
 30
0.0
 10
13.89956968521174
 20
8.436786095972056
 30
0.0
 10
14.43407427560446
 20
7.978630640966723
 30
0.0
 10
14.43407427560446
 20
7.978630640966723
 30
0.0
 10
14.43407427560446
 20
7.978630640966723
 30
0.0
 10
14.43407427560446
 20
7.978630640966723
 30
0.0
 10
14.89221456993954
 20
7.367792075856863
 30
0.0
 10
14.89221456993954
 20
7.367792075856863
 30
0.0
 10
14.89221456993954
 20
7.367792075856863
 30
0.0
 10
14.89221456993954
 20
7.367792075856863
 30
0.0
 10
15.04491284071432
 20
7.367792075856863
 30
0.0
 10
15.04491284071432
 20
7.367792075856863
 30
0.0
 10
15.04491284071432
 20
7.367792075856863
 30
0.0
 10
15.04491284071432
 20
7.367792075856863
 30
0.0
 10
15.96119342938447
 20
7.825947530862197
 30
0.0
 10
15.96119342938447
 20
7.825947530862197
 30
0.0
 10
15.96119342938447
 20
7.825947530862197
 30
0.0
 10
15.96119342938447
 20
7.825947530862197
 30
0.0
 10
15.27400572888723
 20
13.39999535894082
 30
0.0
 10
15.27400572888723
 20
13.39999535894082
 30
0.0
 10
15.27400572888723
 20
13.39999535894082
 30
0.0
 10
15.27400572888723
 20
13.39999535894082
 30
0.0
 10
15.27400572888723
 20
14.39264024366863
 30
0.0
 10
15.27400572888723
 20
14.39264024366863
 30
0.0
 10
15.27400572888723
 20
14.39264024366863
 30
0.0
 10
15.27400572888723
 20
14.39264024366863
 30
0.0
 10
15.19764143282959
 20
14.62173313184154
 30
0.0
 10
15.19764143282959
 20
14.62173313184154
 30
0.0
 10
15.19764143282959
 20
14.62173313184154
 30
0.0
 10
15.19764143282959
 20
14.62173313184154
 30
0.0
 10
14.89221456993954
 20
14.85078053800371
 30
0.0
 10
14.89221456993954
 20
14.85078053800371
 30
0.0
 10
14.89221456993954
 20
14.85078053800371
 30
0.0
 10
14.89221456993954
 20
14.85078053800371
 30
0.0
 10
13.8232053891541
 20
15.23257169695139
 30
0.0
 10
13.8232053891541
 20
15.23257169695139
 30
0.0
 10
13.8232053891541
 20
15.23257169695139
 30
0.0
 10
12.8305605044263
 20
15.00350913011899
 30
0.0
 10
12.8305605044263
 20
15.00350913011899
 30
0.0
  0
SPLINE
  5
202
330
1F
100
AcDbEntity
  8
Layer 1
100
AcDbSpline
210
0.0
220
0.0
230
1.0
 70
    11
 71
     3
 72
   116
 73
   112
 74
     0
 42
0.000000001
 43
0.0000000001
 40
0.0
 40
0.0
 40
0.0
 40
0.0
 40
0.00000001
 40
0.032258064516129
 40
0.032258064516129
 40
0.032258064516129
 40
0.032258074516129
 40
0.064516129032258
 40
0.064516129032258
 40
0.064516129032258
 40
0.064516139032258
 40
0.0967741935483871
 40
0.0967741935483871
 40
0.0967741935483871
 40
0.0967742035483871
 40
0.1290322580645161
 40
0.1290322580645161
 40
0.1290322580645161
 40
0.1290322680645161
 40
0.1612903225806451
 40
0.1612903225806451
 40
0.1612903225806451
 40
0.1612903325806451
 40
0.1935483870967742
 40
0.1935483870967742
 40
0.1935483870967742
 40
0.1935483970967742
 40
0.2258064516129032
 40
0.2258064516129032
 40
0.2258064516129032
 40
0.2258064616129031
 40
0.2580645161290322
 40
0.2580645161290322
 40
0.2580645161290322
 40
0.2580645261290321
 40
0.2903225806451612
 40
0.2903225806451612
 40
0.2903225806451612
 40
0.2903225906451613
 40
0.3225806451612903
 40
0.3225806451612903
 40
0.3225806451612903
 40
0.3225806551612903
 40
0.3548387096774193
 40
0.3548387096774193
 40
0.3548387096774193
 40
0.3548387196774193
 40
0.3870967741935484
 40
0.3870967741935484
 40
0.3870967741935484
 40
0.3870967841935484
 40
0.4193548387096774
 40
0.4193548387096774
 40
0.4193548387096774
 40
0.4193548487096776
 40
0.4516129032258064
 40
0.4516129032258064
 40
0.4516129032258064
 40
0.4516129132258067
 40
0.4838709677419354
 40
0.4838709677419354
 40
0.4838709677419354
 40
0.4838709777419357
 40
0.5161290322580645
 40
0.5161290322580645
 40
0.5161290322580645
 40
0.5161290422580646
 40
0.5483870967741935
 40
0.5483870967741935
 40
0.5483870967741935
 40
0.5483871067741936
 40
0.5806451612903225
 40
0.5806451612903225
 40
0.5806451612903225
 40
0.5806451712903226
 40
0.6129032258064519
 40
0.6129032258064519
 40
0.6129032258064519
 40
0.6129032358064518
 40
0.6451612903225809
 40
0.6451612903225809
 40
0.6451612903225809
 40
0.6451613003225808
 40
0.6774193548387099
 40
0.6774193548387099
 40
0.6774193548387099
 40
0.6774193648387099
 40
0.7096774193548388
 40
0.7096774193548388
 40
0.7096774193548388
 40
0.7096774293548389
 40
0.7419354838709678
 40
0.7419354838709678
 40
0.7419354838709678
 40
0.7419354938709679
 40
0.7741935483870968
 40
0.7741935483870968
 40
0.7741935483870968
 40
0.7741935583870971
 40
0.8064516129032258
 40
0.8064516129032258
 40
0.8064516129032258
 40
0.8064516229032257
 40
0.8387096774193548
 40
0.8387096774193548
 40
0.8387096774193548
 40
0.8387096874193549
 40
0.9032258064516128
 40
0.9032258064516128
 40
0.9032258064516128
 40
0.9354838709677418
 40
0.9354838709677418
 40
0.9354838709677418
 40
0.9354838709677418
 10
15.42668883899175
 20
18.82136007691491
 30
0.0
 10
15.42668883899175
 20
18.82136007691491
 30
0.0
 10
15.42668883899175
 20
18.82136007691491
 30
0.0
 10
15.27400572888723
 20
18.74502610219778
 30
0.0
 10
15.27400572888723
 20
18.74502610219778
 30
0.0
 10
15.27400572888723
 20
18.74502610219778
 30
0.0
 10
15.27400572888723
 20
18.74502610219778
 30
0.0
 10
15.19764143282959
 20
18.66866180614014
 30
0.0
 10
15.19764143282959
 20
18.66866180614014
 30
0.0
 10
15.19764143282959
 20
18.66866180614014
 30
0.0
 10
15.19764143282959
 20
18.66866180614014
 30
0.0
 10
15.04491284071432
 20
18.51593321402486
 30
0.0
 10
15.04491284071432
 20
18.51593321402486
 30
0.0
 10
15.04491284071432
 20
18.51593321402486
 30
0.0
 10
15.04491284071432
 20
18.51593321402486
 30
0.0
 10
14.89221456993954
 20
18.36320462190958
 30
0.0
 10
14.89221456993954
 20
18.36320462190958
 30
0.0
 10
14.89221456993954
 20
18.36320462190958
 30
0.0
 10
14.89221456993954
 20
18.36320462190958
 30
0.0
 10
14.73950113849451
 20
18.05779291968978
 30
0.0
 10
14.73950113849451
 20
18.05779291968978
 30
0.0
 10
14.73950113849451
 20
18.05779291968978
 30
0.0
 10
14.73950113849451
 20
18.05779291968978
 30
0.0
 10
14.43407427560446
 20
17.44692403323941
 30
0.0
 10
14.43407427560446
 20
17.44692403323941
 30
0.0
 10
14.43407427560446
 20
17.44692403323941
 30
0.0
 10
14.43407427560446
 20
17.44692403323941
 30
0.0
 10
14.28134568348919
 20
17.06514803496197
 30
0.0
 10
14.28134568348919
 20
17.06514803496197
 30
0.0
 10
14.28134568348919
 20
17.06514803496197
 30
0.0
 10
14.28134568348919
 20
17.06514803496197
 30
0.0
 10
14.20498138743154
 20
16.83608546812956
 30
0.0
 10
14.20498138743154
 20
16.83608546812956
 30
0.0
 10
14.20498138743154
 20
16.83608546812956
 30
0.0
 10
14.20498138743154
 20
16.83608546812956
 30
0.0
 10
14.12863225204415
 20
16.53064344456925
 30
0.0
 10
14.12863225204415
 20
16.53064344456925
 30
0.0
 10
14.12863225204415
 20
16.53064344456925
 30
0.0
 10
14.12863225204415
 20
16.53064344456925
 30
0.0
 10
14.05226795598651
 20
16.30158087773684
 30
0.0
 10
14.05226795598651
 20
16.30158087773684
 30
0.0
 10
14.05226795598651
 20
16.30158087773684
 30
0.0
 10
14.05226795598651
 20
16.30158087773684
 30
0.0
 10
14.05226795598651
 20
16.14885228562156
 30
0.0
 10
14.05226795598651
 20
16.14885228562156
 30
0.0
 10
14.05226795598651
 20
16.14885228562156
 30
0.0
 10
14.05226795598651
 20
16.14885228562156
 30
0.0
 10
15.42668883899175
 20
15.84344058340175
 30
0.0
 10
15.42668883899175
 20
15.84344058340175
 30
0.0
 10
15.42668883899175
 20
15.84344058340175
 30
0.0
 10
15.42668883899175
 20
15.84344058340175
 30
0.0
 10
15.42668883899175
 20
15.91980487945939
 30
0.0
 10
15.42668883899175
 20
15.91980487945939
 30
0.0
 10
15.42668883899175
 20
15.91980487945939
 30
0.0
 10
15.42668883899175
 20
15.91980487945939
 30
0.0
 10
15.42668883899175
 20
15.99615401484678
 30
0.0
 10
15.42668883899175
 20
15.99615401484678
 30
0.0
 10
15.42668883899175
 20
15.99615401484678
 30
0.0
 10
15.42668883899175
 20
15.99615401484678
 30
0.0
 10
15.42668883899175
 20
16.14885228562156
 30
0.0
 10
15.42668883899175
 20
16.14885228562156
 30
0.0
 10
15.42668883899175
 20
16.14885228562156
 30
0.0
 10
15.42668883899175
 20
16.14885228562156
 30
0.0
 10
15.42668883899175
 20
16.30158087773684
 30
0.0
 10
15.42668883899175
 20
16.30158087773684
 30
0.0
 10
15.42668883899175
 20
16.30158087773684
 30
0.0
 10
15.42668883899175
 20
16.30158087773684
 30
0.0
 10
15.50305313504939
 20
16.45430946985212
 30
0.0
 10
15.50305313504939
 20
16.45430946985212
 30
0.0
 10
15.50305313504939
 20
16.45430946985212
 30
0.0
 10
15.50305313504939
 20
16.45430946985212
 30
0.0
 10
15.57941743110703
 20
16.68335687601428
 30
0.0
 10
15.57941743110703
 20
16.68335687601428
 30
0.0
 10
15.57941743110703
 20
16.68335687601428
 30
0.0
 10
15.57941743110703
 20
16.68335687601428
 30
0.0
 10
15.65578172716467
 20
16.98878373890433
 30
0.0
 10
15.65578172716467
 20
16.98878373890433
 30
0.0
 10
15.65578172716467
 20
16.98878373890433
 30
0.0
 10
15.65578172716467
 20
16.98878373890433
 30
0.0
 10
15.73214602322231
 20
17.217861466407
 30
0.0
 10
15.73214602322231
 20
17.217861466407
 30
0.0
 10
15.73214602322231
 20
17.217861466407
 30
0.0
 10
15.73214602322231
 20
17.217861466407
 30
0.0
 10
15.80847999793945
 20
17.5996526253547
 30
0.0
 10
15.80847999793945
 20
17.5996526253547
 30
0.0
 10
15.80847999793945
 20
17.5996526253547
 30
0.0
 10
15.80847999793945
 20
17.5996526253547
 30
0.0
 10
15.80847999793945
 20
17.9050643275745
 30
0.0
 10
15.80847999793945
 20
17.9050643275745
 30
0.0
 10
15.80847999793945
 20
17.9050643275745
 30
0.0
 10
15.80847999793945
 20
17.9050643275745
 30
0.0
 10
15.73214602322231
 20
18.13415721574742
 30
0.0
 10
15.73214602322231
 20
18.13415721574742
 30
0.0
 10
15.73214602322231
 20
18.13415721574742
 30
0.0
 10
15.73214602322231
 20
18.13415721574742
 30
0.0
 10
15.65578172716467
 20
18.43956891796722
 30
0.0
 10
15.65578172716467
 20
18.43956891796722
 30
0.0
 10
15.65578172716467
 20
18.43956891796722
 30
0.0
 10
15.65578172716467
 20
18.43956891796722
 30
0.0
 10
15.57941743110703
 20
18.66866180614014
 30
0.0
 10
15.57941743110703
 20
18.66866180614014
 30
0.0
 10
15.57941743110703
 20
18.66866180614014
 30
0.0
 10
15.57941743110703
 20
18.66866180614014
 30
0.0
 10
15.57941743110703
 20
18.74502610219778
 30
0.0
 10
15.57941743110703
 20
18.74502610219778
 30
0.0
 10
15.57941743110703
 20
18.74502610219778
 30
0.0
 10
15.57941743110703
 20
18.74502610219778
 30
0.0
 10
15.50305313504939
 20
18.82136007691491
 30
0.0
 10
15.50305313504939
 20
18.82136007691491
 30
0.0
 10
15.50305313504939
 20
18.82136007691491
 30
0.0
 10
15.42668883899175
 20
18.82136007691491
 30
0.0
 10
15.42668883899175
 20
18.82136007691491
 30
0.0
  0
SPLINE
  5
259
330
1F
100
AcDbEntity
  8
Layer 1
100
AcDbSpline
210
0.0
220
0.0
230
1.0
 70
    11
 71
     3
 72
    48
 73
    44
 74
     0
 42
0.000000001
 43
0.0000000001
 40
0.0
 40
0.0
 40
0.0
 40
0.0
 40
0.00000001
 40
0.0833333333333334
 40
0.0833333333333334
 40
0.0833333333333334
 40
0.0833333433333334
 40
0.1666666666666667
 40
0.1666666666666667
 40
0.1666666666666667
 40
0.1666666766666667
 40
0.25
 40
0.25
 40
0.25
 40
0.25000001
 40
0.3333333333333333
 40
0.3333333333333333
 40
0.3333333333333333
 40
0.3333333433333334
 40
0.4166666666666668
 40
0.4166666666666668
 40
0.4166666666666668
 40
0.4166666766666669
 40
0.5000000000000001
 40
0.5000000000000001
 40
0.5000000000000001
 40
0.5000000100000001
 40
0.5833333333333334
 40
0.5833333333333334
 40
0.5833333333333334
 40
0.5833333433333335
 40
0.6666666666666666
 40
0.6666666666666666
 40
0.6666666666666666
 40
0.6666666766666669
 40
0.7500000000000001
 40
0.7500000000000001
 40
0.7500000000000001
 40
0.7500000100000001
 40
0.9166666666666666
 40
0.9166666666666666
 40
0.9166666666666666
 40
0.9999999999999998
 40
0.9999999999999998
 40
0.9999999999999998
 40
0.9999999999999998
 10
8.783631830127696
 20
23.70823536516655
 30
0.0
 10
8.783631830127696
 20
23.70823536516655
 30
0.0
 10
8.783631830127696
 20
23.70823536516655
 30
0.0
 10
6.187488334891978
 20
25.46444740711948
 30
0.0
 10
6.187488334891978
 20
25.46444740711948
 30
0.0
 10
6.187488334891978
 20
25.46444740711948
 30
0.0
 10
6.187488334891978
 20
25.46444740711948
 30
0.0
 10
5.958410607389312
 20
25.46444740711948
 30
0.0
 10
5.958410607389312
 20
25.46444740711948
 30
0.0
 10
5.958410607389312
 20
25.46444740711948
 30
0.0
 10
5.958410607389312
 20
25.46444740711948
 30
0.0
 10
5.882046311331672
 20
25.23535451894657
 30
0.0
 10
5.882046311331672
 20
25.23535451894657
 30
0.0
 10
5.882046311331672
 20
25.23535451894657
 30
0.0
 10
5.882046311331672
 20
25.23535451894657
 30
0.0
 10
6.340186605666754
 20
23.55550677305127
 30
0.0
 10
6.340186605666754
 20
23.55550677305127
 30
0.0
 10
6.340186605666754
 20
23.55550677305127
 30
0.0
 10
6.340186605666754
 20
23.55550677305127
 30
0.0
 10
6.03477490344695
 20
23.40279334160624
 30
0.0
 10
6.03477490344695
 20
23.40279334160624
 30
0.0
 10
6.03477490344695
 20
23.40279334160624
 30
0.0
 10
6.03477490344695
 20
23.40279334160624
 30
0.0
 10
5.958410607389312
 20
23.25009507083146
 30
0.0
 10
5.958410607389312
 20
23.25009507083146
 30
0.0
 10
5.958410607389312
 20
23.25009507083146
 30
0.0
 10
5.958410607389312
 20
23.25009507083146
 30
0.0
 10
5.958410607389312
 20
22.86830391188377
 30
0.0
 10
5.958410607389312
 20
22.86830391188377
 30
0.0
 10
5.958410607389312
 20
22.86830391188377
 30
0.0
 10
5.958410607389312
 20
22.86830391188377
 30
0.0
 10
6.340186605666754
 20
22.41016361754869
 30
0.0
 10
6.340186605666754
 20
22.41016361754869
 30
0.0
 10
6.340186605666754
 20
22.41016361754869
 30
0.0
 10
6.340186605666754
 20
22.41016361754869
 30
0.0
 10
9.623548122740221
 20
20.04308268914538
 30
0.0
 10
9.623548122740221
 20
20.04308268914538
 30
0.0
 10
9.623548122740221
 20
20.04308268914538
 30
0.0
 10
9.623548122740221
 20
20.04308268914538
 30
0.0
 10
9.852641010913137
 20
22.6392261843811
 30
0.0
 10
9.852641010913137
 20
22.6392261843811
 30
0.0
 10
9.852641010913137
 20
22.6392261843811
 30
0.0
 10
8.783631830127696
 20
23.70823536516655
 30
0.0
 10
8.783631830127696
 20
23.70823536516655
 30
0.0
  0
SPLINE
  5
26D
330
1F
100
AcDbEntity
  8
Layer 1
100
AcDbSpline
210
0.0
220
0.0
230
1.0
 70
    11
 71
     3
 72
    84
 73
    80
 74
     0
 42
0.000000001
 43
0.0000000001
 40
0.0
 40
0.0
 40
0.0
 40
0.0
 40
0.00000001
 40
0.0476190476190476
 40
0.0476190476190476
 40
0.0476190476190476
 40
0.0476190576190476
 40
0.0952380952380952
 40
0.0952380952380952
 40
0.0952380952380952
 40
0.0952381052380952
 40
0.1428571428571429
 40
0.1428571428571429
 40
0.1428571428571429
 40
0.1428571528571429
 40
0.1904761904761905
 40
0.1904761904761905
 40
0.1904761904761905
 40
0.1904762004761905
 40
0.2380952380952381
 40
0.2380952380952381
 40
0.2380952380952381
 40
0.2380952480952381
 40
0.2857142857142858
 40
0.2857142857142858
 40
0.2857142857142858
 40
0.2857142957142857
 40
0.3333333333333333
 40
0.3333333333333333
 40
0.3333333333333333
 40
0.3333333433333332
 40
0.3809523809523808
 40
0.3809523809523808
 40
0.3809523809523808
 40
0.3809523909523809
 40
0.4285714285714289
 40
0.4285714285714289
 40
0.4285714285714289
 40
0.4285714385714286
 40
0.4761904761904762
 40
0.4761904761904762
 40
0.4761904761904762
 40
0.4761904861904763
 40
0.5238095238095239
 40
0.5238095238095239
 40
0.5238095238095239
 40
0.5238095338095239
 40
0.5714285714285714
 40
0.5714285714285714
 40
0.5714285714285714
 40
0.5714285814285716
 40
0.6190476190476191
 40
0.6190476190476191
 40
0.6190476190476191
 40
0.619047629047619
 40
0.6666666666666666
 40
0.6666666666666666
 40
0.6666666666666666
 40
0.6666666766666666
 40
0.7142857142857145
 40
0.7142857142857145
 40
0.7142857142857145
 40
0.7142857242857144
 40
0.7619047619047619
 40
0.7619047619047619
 40
0.7619047619047619
 40
0.7619047719047623
 40
0.8095238095238094
 40
0.8095238095238094
 40
0.8095238095238094
 40
0.8095238195238094
 40
0.8571428571428571
 40
0.8571428571428571
 40
0.8571428571428571
 40
0.857142867142857
 40
0.9523809523809523
 40
0.9523809523809523
 40
0.9523809523809523
 40
0.9999999999999998
 40
0.9999999999999998
 40
0.9999999999999998
 40
0.9999999999999998
 10
11.37976016469316
 20
21.57021700359566
 30
0.0
 10
11.37976016469316
 20
21.57021700359566
 30
0.0
 10
11.37976016469316
 20
21.57021700359566
 30
0.0
 10
10.31078130524822
 20
22.6392261843811
 30
0.0
 10
10.31078130524822
 20
22.6392261843811
 30
0.0
 10
10.31078130524822
 20
22.6392261843811
 30
0.0
 10
10.31078130524822
 20
22.6392261843811
 30
0.0
 10
9.928974985630274
 20
20.5775872795381
 30
0.0
 10
9.928974985630274
 20
20.5775872795381
 30
0.0
 10
9.928974985630274
 20
20.5775872795381
 30
0.0
 10
9.928974985630274
 20
20.5775872795381
 30
0.0
 10
10.08170357774555
 20
20.2721452559778
 30
0.0
 10
10.08170357774555
 20
20.2721452559778
 30
0.0
 10
10.08170357774555
 20
20.2721452559778
 30
0.0
 10
10.08170357774555
 20
20.2721452559778
 30
0.0
 10
10.53984387208063
 20
19.73764066558508
 30
0.0
 10
10.53984387208063
 20
19.73764066558508
 30
0.0
 10
10.53984387208063
 20
19.73764066558508
 30
0.0
 10
10.53984387208063
 20
19.73764066558508
 30
0.0
 10
11.76155132364085
 20
18.66866180614014
 30
0.0
 10
11.76155132364085
 20
18.66866180614014
 30
0.0
 10
11.76155132364085
 20
18.66866180614014
 30
0.0
 10
11.76155132364085
 20
18.66866180614014
 30
0.0
 10
11.91426475508588
 20
18.51593321402486
 30
0.0
 10
11.91426475508588
 20
18.51593321402486
 30
0.0
 10
11.91426475508588
 20
18.51593321402486
 30
0.0
 10
11.91426475508588
 20
18.51593321402486
 30
0.0
 10
11.60885305286607
 20
18.51593321402486
 30
0.0
 10
11.60885305286607
 20
18.51593321402486
 30
0.0
 10
11.60885305286607
 20
18.51593321402486
 30
0.0
 10
11.60885305286607
 20
18.51593321402486
 30
0.0
 10
10.61620816813827
 20
18.74502610219778
 30
0.0
 10
10.61620816813827
 20
18.74502610219778
 30
0.0
 10
10.61620816813827
 20
18.74502610219778
 30
0.0
 10
10.61620816813827
 20
18.74502610219778
 30
0.0
 10
9.623548122740221
 20
19.27950037124999
 30
0.0
 10
9.623548122740221
 20
19.27950037124999
 30
0.0
 10
9.623548122740221
 20
19.27950037124999
 30
0.0
 10
9.623548122740221
 20
19.27950037124999
 30
0.0
 10
8.325491535792611
 20
20.11944698520302
 30
0.0
 10
8.325491535792611
 20
20.11944698520302
 30
0.0
 10
8.325491535792611
 20
20.11944698520302
 30
0.0
 10
8.325491535792611
 20
20.11944698520302
 30
0.0
 10
8.249127239734972
 20
20.04308268914538
 30
0.0
 10
8.249127239734972
 20
20.04308268914538
 30
0.0
 10
8.249127239734972
 20
20.04308268914538
 30
0.0
 10
8.249127239734972
 20
20.04308268914538
 30
0.0
 10
8.249127239734972
 20
19.89036925770036
 30
0.0
 10
8.249127239734972
 20
19.89036925770036
 30
0.0
 10
8.249127239734972
 20
19.89036925770036
 30
0.0
 10
8.249127239734972
 20
19.89036925770036
 30
0.0
 10
8.859996126185333
 20
18.51593321402486
 30
0.0
 10
8.859996126185333
 20
18.51593321402486
 30
0.0
 10
8.859996126185333
 20
18.51593321402486
 30
0.0
 10
8.859996126185333
 20
18.51593321402486
 30
0.0
 10
9.241772124462775
 20
17.98142862363214
 30
0.0
 10
9.241772124462775
 20
17.98142862363214
 30
0.0
 10
9.241772124462775
 20
17.98142862363214
 30
0.0
 10
9.241772124462775
 20
17.98142862363214
 30
0.0
 10
10.53984387208063
 20
17.06514803496197
 30
0.0
 10
10.53984387208063
 20
17.06514803496197
 30
0.0
 10
10.53984387208063
 20
17.06514803496197
 30
0.0
 10
10.53984387208063
 20
17.06514803496197
 30
0.0
 10
11.150712758531
 20
16.9124497641872
 30
0.0
 10
11.150712758531
 20
16.9124497641872
 30
0.0
 10
11.150712758531
 20
16.9124497641872
 30
0.0
 10
11.150712758531
 20
16.9124497641872
 30
0.0
 10
13.21233650270374
 20
16.60699257995664
 30
0.0
 10
13.21233650270374
 20
16.60699257995664
 30
0.0
 10
13.21233650270374
 20
16.60699257995664
 30
0.0
 10
13.21233650270374
 20
16.60699257995664
 30
0.0
 10
13.44142939087666
 20
17.14149717034936
 30
0.0
 10
13.44142939087666
 20
17.14149717034936
 30
0.0
 10
13.44142939087666
 20
17.14149717034936
 30
0.0
 10
13.44142939087666
 20
17.14149717034936
 30
0.0
 10
13.8232053891541
 20
18.05779291968978
 30
0.0
 10
13.8232053891541
 20
18.05779291968978
 30
0.0
 10
13.8232053891541
 20
18.05779291968978
 30
0.0
 10
11.37976016469316
 20
21.57021700359566
 30
0.0
 10
11.37976016469316
 20
21.57021700359566
 30
0.0
  0
SPLINE
  5
278
330
1F
100
AcDbEntity
  8
Layer 1
100
AcDbSpline
210
0.0
220
0.0
230
1.0
 70
    11
 71
     3
 72
    48
 73
    44
 74
     0
 42
0.000000001
 43
0.0000000001
 40
0.0
 40
0.0
 40
0.0
 40
0.0
 40
0.00000001
 40
0.0833333333333334
 40
0.0833333333333334
 40
0.0833333333333334
 40
0.0833333433333334
 40
0.1666666666666667
 40
0.1666666666666667
 40
0.1666666666666667
 40
0.1666666766666667
 40
0.25
 40
0.25
 40
0.25
 40
0.25000001
 40
0.3333333333333333
 40
0.3333333333333333
 40
0.3333333333333333
 40
0.3333333433333334
 40
0.4166666666666668
 40
0.4166666666666668
 40
0.4166666666666668
 40
0.4166666766666669
 40
0.5000000000000001
 40
0.5000000000000001
 40
0.5000000000000001
 40
0.5000000100000001
 40
0.5833333333333334
 40
0.5833333333333334
 40
0.5833333333333334
 40
0.5833333433333335
 40
0.6666666666666666
 40
0.6666666666666666
 40
0.6666666666666666
 40
0.6666666766666669
 40
0.7500000000000001
 40
0.7500000000000001
 40
0.7500000000000001
 40
0.7500000100000001
 40
0.9166666666666666
 40
0.9166666666666666
 40
0.9166666666666666
 40
0.9999999999999998
 40
0.9999999999999998
 40
0.9999999999999998
 40
0.9999999999999998
 10
2.369622227425792
 20
29.96951637575318
 30
0.0
 10
2.369622227425792
 20
29.96951637575318
 30
0.0
 10
2.369622227425792
 20
29.96951637575318
 30
0.0
 10
3.820407406488678
 20
28.59509549274792
 30
0.0
 10
3.820407406488678
 20
28.59509549274792
 30
0.0
 10
3.820407406488678
 20
28.59509549274792
 30
0.0
 10
3.820407406488678
 20
28.59509549274792
 30
0.0
 10
3.820407406488678
 20
28.44236690063264
 30
0.0
 10
3.820407406488678
 20
28.44236690063264
 30
0.0
 10
3.820407406488678
 20
28.44236690063264
 30
0.0
 10
3.820407406488678
 20
28.44236690063264
 30
0.0
 10
3.667693975043651
 20
28.44236690063264
 30
0.0
 10
3.667693975043651
 20
28.44236690063264
 30
0.0
 10
3.667693975043651
 20
28.44236690063264
 30
0.0
 10
3.667693975043651
 20
28.44236690063264
 30
0.0
 10
3.362267112153596
 20
28.51873119669029
 30
0.0
 10
3.362267112153596
 20
28.51873119669029
 30
0.0
 10
3.362267112153596
 20
28.51873119669029
 30
0.0
 10
3.362267112153596
 20
28.51873119669029
 30
0.0
 10
3.51496538292837
 20
28.28966862985787
 30
0.0
 10
3.51496538292837
 20
28.28966862985787
 30
0.0
 10
3.51496538292837
 20
28.28966862985787
 30
0.0
 10
3.51496538292837
 20
28.28966862985787
 30
0.0
 10
4.202198565436372
 20
27.75516403946515
 30
0.0
 10
4.202198565436372
 20
27.75516403946515
 30
0.0
 10
4.202198565436372
 20
27.75516403946515
 30
0.0
 10
4.202198565436372
 20
27.75516403946515
 30
0.0
 10
5.042114858048896
 20
27.52607115129223
 30
0.0
 10
5.042114858048896
 20
27.52607115129223
 30
0.0
 10
5.042114858048896
 20
27.52607115129223
 30
0.0
 10
5.042114858048896
 20
27.52607115129223
 30
0.0
 10
5.271207746221815
 20
27.44975233724535
 30
0.0
 10
5.271207746221815
 20
27.44975233724535
 30
0.0
 10
5.271207746221815
 20
27.44975233724535
 30
0.0
 10
5.271207746221815
 20
27.44975233724535
 30
0.0
 10
5.042114858048896
 20
28.13694003774259
 30
0.0
 10
5.042114858048896
 20
28.13694003774259
 30
0.0
 10
5.042114858048896
 20
28.13694003774259
 30
0.0
 10
5.042114858048896
 20
28.13694003774259
 30
0.0
 10
5.042114858048896
 20
28.74780892419295
 30
0.0
 10
5.042114858048896
 20
28.74780892419295
 30
0.0
 10
5.042114858048896
 20
28.74780892419295
 30
0.0
 10
2.369622227425792
 20
29.96951637575318
 30
0.0
 10
2.369622227425792
 20
29.96951637575318
 30
0.0
  0
SPLINE
  5
285
330
1F
100
AcDbEntity
  8
Layer 1
100
AcDbSpline
210
0.0
220
0.0
230
1.0
 70
    11
 71
     3
 72
    56
 73
    52
 74
     0
 42
0.000000001
 43
0.0000000001
 40
0.0
 40
0.0
 40
0.0
 40
0.0
 40
0.00000001
 40
0.0714285714285714
 40
0.0714285714285714
 40
0.0714285714285714
 40
0.0714285814285714
 40
0.1428571428571429
 40
0.1428571428571429
 40
0.1428571428571429
 40
0.1428571528571429
 40
0.2142857142857143
 40
0.2142857142857143
 40
0.2142857142857143
 40
0.2142857242857143
 40
0.2857142857142858
 40
0.2857142857142858
 40
0.2857142857142858
 40
0.2857142957142857
 40
0.3571428571428571
 40
0.3571428571428571
 40
0.3571428571428571
 40
0.3571428671428571
 40
0.4285714285714289
 40
0.4285714285714289
 40
0.4285714285714289
 40
0.4285714385714287
 40
0.5
 40
0.5
 40
0.5
 40
0.5000000100000002
 40
0.5714285714285717
 40
0.5714285714285717
 40
0.5714285714285717
 40
0.5714285814285715
 40
0.6428571428571429
 40
0.6428571428571429
 40
0.6428571428571429
 40
0.642857152857143
 40
0.7142857142857145
 40
0.7142857142857145
 40
0.7142857142857145
 40
0.7142857242857144
 40
0.7857142857142857
 40
0.7857142857142857
 40
0.7857142857142857
 40
0.7857142957142857
 40
0.9285714285714286
 40
0.9285714285714286
 40
0.9285714285714286
 40
1.0
 40
1.0
 40
1.0
 40
1.0
 10
6.340186605666754
 20
28.21330433380023
 30
0.0
 10
6.340186605666754
 20
28.21330433380023
 30
0.0
 10
6.340186605666754
 20
28.21330433380023
 30
0.0
 10
5.882046311331672
 20
28.36603292591551
 30
0.0
 10
5.882046311331672
 20
28.36603292591551
 30
0.0
 10
5.882046311331672
 20
28.36603292591551
 30
0.0
 10
5.882046311331672
 20
28.36603292591551
 30
0.0
 10
5.50027031305423
 20
28.28966862985787
 30
0.0
 10
5.50027031305423
 20
28.28966862985787
 30
0.0
 10
5.50027031305423
 20
28.28966862985787
 30
0.0
 10
5.50027031305423
 20
28.28966862985787
 30
0.0
 10
5.50027031305423
 20
28.0605909023552
 30
0.0
 10
5.50027031305423
 20
28.0605909023552
 30
0.0
 10
5.50027031305423
 20
28.0605909023552
 30
0.0
 10
5.50027031305423
 20
28.0605909023552
 30
0.0
 10
6.03477490344695
 20
27.22065944907243
 30
0.0
 10
6.03477490344695
 20
27.22065944907243
 30
0.0
 10
6.03477490344695
 20
27.22065944907243
 30
0.0
 10
6.03477490344695
 20
27.22065944907243
 30
0.0
 10
6.11113919950459
 20
27.06793085695715
 30
0.0
 10
6.11113919950459
 20
27.06793085695715
 30
0.0
 10
6.11113919950459
 20
27.06793085695715
 30
0.0
 10
6.11113919950459
 20
27.06793085695715
 30
0.0
 10
5.882046311331672
 20
26.68615485867971
 30
0.0
 10
5.882046311331672
 20
26.68615485867971
 30
0.0
 10
5.882046311331672
 20
26.68615485867971
 30
0.0
 10
5.882046311331672
 20
26.68615485867971
 30
0.0
 10
5.882046311331672
 20
26.38072799578965
 30
0.0
 10
5.882046311331672
 20
26.38072799578965
 30
0.0
 10
5.882046311331672
 20
26.38072799578965
 30
0.0
 10
5.882046311331672
 20
26.38072799578965
 30
0.0
 10
6.492915197782033
 20
25.92258770145457
 30
0.0
 10
6.492915197782033
 20
25.92258770145457
 30
0.0
 10
6.492915197782033
 20
25.92258770145457
 30
0.0
 10
6.492915197782033
 20
25.92258770145457
 30
0.0
 10
8.249127239734972
 20
24.77721422461149
 30
0.0
 10
8.249127239734972
 20
24.77721422461149
 30
0.0
 10
8.249127239734972
 20
24.77721422461149
 30
0.0
 10
8.249127239734972
 20
24.77721422461149
 30
0.0
 10
8.401855831850253
 20
25.0063071127844
 30
0.0
 10
8.401855831850253
 20
25.0063071127844
 30
0.0
 10
8.401855831850253
 20
25.0063071127844
 30
0.0
 10
8.401855831850253
 20
25.0063071127844
 30
0.0
 10
8.478204967237639
 20
25.6935099739519
 30
0.0
 10
8.478204967237639
 20
25.6935099739519
 30
0.0
 10
8.478204967237639
 20
25.6935099739519
 30
0.0
 10
8.478204967237639
 20
25.6935099739519
 30
0.0
 10
8.401855831850253
 20
27.14429515301479
 30
0.0
 10
8.401855831850253
 20
27.14429515301479
 30
0.0
 10
8.401855831850253
 20
27.14429515301479
 30
0.0
 10
6.340186605666754
 20
28.21330433380023
 30
0.0
 10
6.340186605666754
 20
28.21330433380023
 30
0.0
  0
SPLINE
  5
2A6
330
1F
100
AcDbEntity
  8
Layer 1
100
AcDbSpline
210
0.0
220
0.0
230
1.0
 70
    11
 71
     3
 72
   136
 73
   132
 74
     0
 42
0.000000001
 43
0.0000000001
 40
0.0
 40
0.0
 40
0.0
 40
0.0
 40
0.00000001
 40
0.0285714285714285
 40
0.0285714285714285
 40
0.0285714285714285
 40
0.0285714385714285
 40
0.0571428571428571
 40
0.0571428571428571
 40
0.0571428571428571
 40
0.0571428671428571
 40
0.0857142857142858
 40
0.0857142857142858
 40
0.0857142857142858
 40
0.0857142957142857
 40
0.1142857142857142
 40
0.1142857142857142
 40
0.1142857142857142
 40
0.1142857242857142
 40
0.1428571428571428
 40
0.1428571428571428
 40
0.1428571428571428
 40
0.1428571528571428
 40
0.1714285714285714
 40
0.1714285714285714
 40
0.1714285714285714
 40
0.1714285814285714
 40
0.2
 40
0.2
 40
0.2
 40
0.2000000099999999
 40
0.2285714285714286
 40
0.2285714285714286
 40
0.2285714285714286
 40
0.2285714385714285
 40
0.2571428571428571
 40
0.2571428571428571
 40
0.2571428571428571
 40
0.2571428671428571
 40
0.2857142857142857
 40
0.2857142857142857
 40
0.2857142857142857
 40
0.2857142957142857
 40
0.3142857142857143
 40
0.3142857142857143
 40
0.3142857142857143
 40
0.3142857242857143
 40
0.3428571428571428
 40
0.3428571428571428
 40
0.3428571428571428
 40
0.3428571528571427
 40
0.3714285714285714
 40
0.3714285714285714
 40
0.3714285714285714
 40
0.3714285814285715
 40
0.3999999999999999
 40
0.3999999999999999
 40
0.3999999999999999
 40
0.4000000100000002
 40
0.4285714285714285
 40
0.4285714285714285
 40
0.4285714285714285
 40
0.4285714385714286
 40
0.4571428571428572
 40
0.4571428571428572
 40
0.4571428571428572
 40
0.4571428671428572
 40
0.4857142857142857
 40
0.4857142857142857
 40
0.4857142857142857
 40
0.4857142957142857
 40
0.5142857142857144
 40
0.5142857142857144
 40
0.5142857142857144
 40
0.5142857242857143
 40
0.5428571428571429
 40
0.5428571428571429
 40
0.5428571428571429
 40
0.5428571528571429
 40
0.5714285714285713
 40
0.5714285714285713
 40
0.5714285714285713
 40
0.5714285814285715
 40
0.6000000000000001
 40
0.6000000000000001
 40
0.6000000000000001
 40
0.6000000100000003
 40
0.6285714285714285
 40
0.6285714285714285
 40
0.6285714285714285
 40
0.6285714385714286
 40
0.6571428571428573
 40
0.6571428571428573
 40
0.6571428571428573
 40
0.6571428671428575
 40
0.6857142857142856
 40
0.6857142857142856
 40
0.6857142857142856
 40
0.6857142957142858
 40
0.7142857142857145
 40
0.7142857142857145
 40
0.7142857142857145
 40
0.7142857242857144
 40
0.7428571428571428
 40
0.7428571428571428
 40
0.7428571428571428
 40
0.7428571528571429
 40
0.7714285714285716
 40
0.7714285714285716
 40
0.7714285714285716
 40
0.7714285814285715
 40
0.8
 40
0.8
 40
0.8
 40
0.8000000100000001
 40
0.8285714285714284
 40
0.8285714285714284
 40
0.8285714285714284
 40
0.8285714385714284
 40
0.8571428571428572
 40
0.8571428571428572
 40
0.8571428571428572
 40
0.857142867142857
 40
0.8857142857142859
 40
0.8857142857142859
 40
0.8857142857142859
 40
0.8857142957142858
 40
0.9428571428571428
 40
0.9428571428571428
 40
0.9428571428571428
 40
0.9714285714285717
 40
0.9714285714285717
 40
0.9714285714285717
 40
0.9714285714285717
 10
11.37976016469316
 20
25.08267140884204
 30
0.0
 10
11.37976016469316
 20
25.08267140884204
 30
0.0
 10
11.37976016469316
 20
25.08267140884204
 30
0.0
 10
11.22707705458863
 20
25.23535451894657
 30
0.0
 10
11.22707705458863
 20
25.23535451894657
 30
0.0
 10
11.22707705458863
 20
25.23535451894657
 30
0.0
 10
11.22707705458863
 20
25.23535451894657
 30
0.0
 10
10.99798416641571
 20
25.38808311106185
 30
0.0
 10
10.99798416641571
 20
25.38808311106185
 30
0.0
 10
10.99798416641571
 20
25.38808311106185
 30
0.0
 10
10.99798416641571
 20
25.38808311106185
 30
0.0
 10
10.7689215995833
 20
25.61717599923476
 30
0.0
 10
10.7689215995833
 20
25.61717599923476
 30
0.0
 10
10.7689215995833
 20
25.61717599923476
 30
0.0
 10
10.7689215995833
 20
25.61717599923476
 30
0.0
 10
10.46347957602299
 20
25.84622340539693
 30
0.0
 10
10.46347957602299
 20
25.84622340539693
 30
0.0
 10
10.46347957602299
 20
25.84622340539693
 30
0.0
 10
10.46347957602299
 20
25.84622340539693
 30
0.0
 10
9.852641010913137
 20
26.22801456434463
 30
0.0
 10
9.852641010913137
 20
26.22801456434463
 30
0.0
 10
9.852641010913137
 20
26.22801456434463
 30
0.0
 10
9.852641010913137
 20
26.22801456434463
 30
0.0
 10
9.623548122740221
 20
26.38072799578965
 30
0.0
 10
9.623548122740221
 20
26.38072799578965
 30
0.0
 10
9.623548122740221
 20
26.38072799578965
 30
0.0
 10
9.623548122740221
 20
26.38072799578965
 30
0.0
 10
9.318136420520415
 20
26.53345658790493
 30
0.0
 10
9.318136420520415
 20
26.53345658790493
 30
0.0
 10
9.318136420520415
 20
26.53345658790493
 30
0.0
 10
9.318136420520415
 20
26.53345658790493
 30
0.0
 10
9.165407828405136
 20
26.60979056262207
 30
0.0
 10
9.165407828405136
 20
26.60979056262207
 30
0.0
 10
9.165407828405136
 20
26.60979056262207
 30
0.0
 10
9.165407828405136
 20
26.60979056262207
 30
0.0
 10
8.936360422242973
 20
26.68615485867971
 30
0.0
 10
8.936360422242973
 20
26.68615485867971
 30
0.0
 10
8.936360422242973
 20
26.68615485867971
 30
0.0
 10
8.936360422242973
 20
26.68615485867971
 30
0.0
 10
8.859996126185333
 20
26.76251915473736
 30
0.0
 10
8.859996126185333
 20
26.76251915473736
 30
0.0
 10
8.859996126185333
 20
26.76251915473736
 30
0.0
 10
8.859996126185333
 20
26.76251915473736
 30
0.0
 10
8.783631830127696
 20
26.76251915473736
 30
0.0
 10
8.783631830127696
 20
26.76251915473736
 30
0.0
 10
8.783631830127696
 20
26.76251915473736
 30
0.0
 10
8.783631830127696
 20
26.76251915473736
 30
0.0
 10
8.707267534070053
 20
26.68615485867971
 30
0.0
 10
8.707267534070053
 20
26.68615485867971
 30
0.0
 10
8.707267534070053
 20
26.68615485867971
 30
0.0
 10
8.707267534070053
 20
26.68615485867971
 30
0.0
 10
8.783631830127696
 20
26.60979056262207
 30
0.0
 10
8.783631830127696
 20
26.60979056262207
 30
0.0
 10
8.783631830127696
 20
26.60979056262207
 30
0.0
 10
8.783631830127696
 20
26.60979056262207
 30
0.0
 10
8.859996126185333
 20
26.30437886040226
 30
0.0
 10
8.859996126185333
 20
26.30437886040226
 30
0.0
 10
8.859996126185333
 20
26.30437886040226
 30
0.0
 10
8.859996126185333
 20
26.30437886040226
 30
0.0
 10
9.012694396960108
 20
25.9989519975122
 30
0.0
 10
9.012694396960108
 20
25.9989519975122
 30
0.0
 10
9.012694396960108
 20
25.9989519975122
 30
0.0
 10
9.012694396960108
 20
25.9989519975122
 30
0.0
 10
9.012694396960108
 20
25.61717599923476
 30
0.0
 10
9.012694396960108
 20
25.61717599923476
 30
0.0
 10
9.012694396960108
 20
25.61717599923476
 30
0.0
 10
9.012694396960108
 20
25.61717599923476
 30
0.0
 10
9.012694396960108
 20
25.46444740711948
 30
0.0
 10
9.012694396960108
 20
25.46444740711948
 30
0.0
 10
9.012694396960108
 20
25.46444740711948
 30
0.0
 10
9.012694396960108
 20
25.46444740711948
 30
0.0
 10
9.012694396960108
 20
25.31171881500421
 30
0.0
 10
9.012694396960108
 20
25.31171881500421
 30
0.0
 10
9.012694396960108
 20
25.31171881500421
 30
0.0
 10
9.012694396960108
 20
25.31171881500421
 30
0.0
 10
8.936360422242973
 20
25.15903570489968
 30
0.0
 10
8.936360422242973
 20
25.15903570489968
 30
0.0
 10
8.936360422242973
 20
25.15903570489968
 30
0.0
 10
8.936360422242973
 20
25.15903570489968
 30
0.0
 10
8.859996126185333
 20
25.0063071127844
 30
0.0
 10
8.859996126185333
 20
25.0063071127844
 30
0.0
 10
8.859996126185333
 20
25.0063071127844
 30
0.0
 10
8.859996126185333
 20
25.0063071127844
 30
0.0
 10
8.783631830127696
 20
24.92994281672676
 30
0.0
 10
8.783631830127696
 20
24.92994281672676
 30
0.0
 10
8.783631830127696
 20
24.92994281672676
 30
0.0
 10
8.783631830127696
 20
24.92994281672676
 30
0.0
 10
8.707267534070053
 20
24.77721422461149
 30
0.0
 10
8.707267534070053
 20
24.77721422461149
 30
0.0
 10
8.707267534070053
 20
24.77721422461149
 30
0.0
 10
8.707267534070053
 20
24.77721422461149
 30
0.0
 10
8.707267534070053
 20
24.70088024989435
 30
0.0
 10
8.707267534070053
 20
24.70088024989435
 30
0.0
 10
8.707267534070053
 20
24.70088024989435
 30
0.0
 10
8.707267534070053
 20
24.70088024989435
 30
0.0
 10
8.707267534070053
 20
24.54816681844933
 30
0.0
 10
8.707267534070053
 20
24.54816681844933
 30
0.0
 10
8.707267534070053
 20
24.54816681844933
 30
0.0
 10
8.707267534070053
 20
24.54816681844933
 30
0.0
 10
8.859996126185333
 20
24.39543822633404
 30
0.0
 10
8.859996126185333
 20
24.39543822633404
 30
0.0
 10
8.859996126185333
 20
24.39543822633404
 30
0.0
 10
8.859996126185333
 20
24.39543822633404
 30
0.0
 10
9.012694396960108
 20
24.16637565950163
 30
0.0
 10
9.012694396960108
 20
24.16637565950163
 30
0.0
 10
9.012694396960108
 20
24.16637565950163
 30
0.0
 10
9.012694396960108
 20
24.16637565950163
 30
0.0
 10
9.394500716578056
 20
23.86093363594132
 30
0.0
 10
9.394500716578056
 20
23.86093363594132
 30
0.0
 10
9.394500716578056
 20
23.86093363594132
 30
0.0
 10
9.394500716578056
 20
23.86093363594132
 30
0.0
 10
9.776276714855494
 20
23.55550677305127
 30
0.0
 10
9.776276714855494
 20
23.55550677305127
 30
0.0
 10
9.776276714855494
 20
23.55550677305127
 30
0.0
 10
9.776276714855494
 20
23.55550677305127
 30
0.0
 10
9.928974985630274
 20
23.40279334160624
 30
0.0
 10
9.928974985630274
 20
23.40279334160624
 30
0.0
 10
9.928974985630274
 20
23.40279334160624
 30
0.0
 10
9.928974985630274
 20
23.40279334160624
 30
0.0
 10
10.00533928168791
 20
23.3264593668891
 30
0.0
 10
10.00533928168791
 20
23.3264593668891
 30
0.0
 10
10.00533928168791
 20
23.3264593668891
 30
0.0
 10
10.00533928168791
 20
23.3264593668891
 30
0.0
 10
10.08170357774555
 20
23.25009507083146
 30
0.0
 10
10.08170357774555
 20
23.25009507083146
 30
0.0
 10
10.08170357774555
 20
23.25009507083146
 30
0.0
 10
10.08170357774555
 20
23.25009507083146
 30
0.0
 10
11.53248875680842
 20
24.92994281672676
 30
0.0
 10
11.53248875680842
 20
24.92994281672676
 30
0.0
 10
11.53248875680842
 20
24.92994281672676
 30
0.0
 10
11.37976016469316
 20
25.08267140884204
 30
0.0
 10
11.37976016469316
 20
25.08267140884204
 30
0.0
  0
SPLINE
  5
2B4
330
1F
100
AcDbEntity
  8
Layer 1
100
AcDbSpline
210
0.0
220
0.0
230
1.0
 70
    11
 71
     3
 72
    60
 73
    56
 74
     0
 42
0.000000001
 43
0.0000000001
 40
0.0
 40
0.0
 40
0.0
 40
0.0
 40
0.00000001
 40
0.0666666666666666
 40
0.0666666666666666
 40
0.0666666666666666
 40
0.0666666766666666
 40
0.1333333333333333
 40
0.1333333333333333
 40
0.1333333333333333
 40
0.1333333433333333
 40
0.2
 40
0.2
 40
0.2
 40
0.20000001
 40
0.2666666666666666
 40
0.2666666666666666
 40
0.2666666666666666
 40
0.2666666766666666
 40
0.3333333333333334
 40
0.3333333333333334
 40
0.3333333333333334
 40
0.3333333433333333
 40
0.4
 40
0.4
 40
0.4
 40
0.4000000100000002
 40
0.4666666666666667
 40
0.4666666666666667
 40
0.4666666666666667
 40
0.4666666766666669
 40
0.5333333333333333
 40
0.5333333333333333
 40
0.5333333333333333
 40
0.5333333433333333
 40
0.6
 40
0.6
 40
0.6
 40
0.6000000100000002
 40
0.6666666666666666
 40
0.6666666666666666
 40
0.6666666666666666
 40
0.6666666766666666
 40
0.7333333333333333
 40
0.7333333333333333
 40
0.7333333333333333
 40
0.7333333433333335
 40
0.8
 40
0.8
 40
0.8
 40
0.8000000099999999
 40
0.9333333333333332
 40
0.9333333333333332
 40
0.9333333333333332
 40
0.9999999999999998
 40
0.9999999999999998
 40
0.9999999999999998
 40
0.9999999999999998
 10
14.12863225204415
 20
18.74502610219778
 30
0.0
 10
14.12863225204415
 20
18.74502610219778
 30
0.0
 10
14.12863225204415
 20
18.74502610219778
 30
0.0
 10
14.35770997954682
 20
18.97407350835994
 30
0.0
 10
14.35770997954682
 20
18.97407350835994
 30
0.0
 10
14.35770997954682
 20
18.97407350835994
 30
0.0
 10
14.35770997954682
 20
18.97407350835994
 30
0.0
 10
15.27400572888723
 20
19.35586466730764
 30
0.0
 10
15.27400572888723
 20
19.35586466730764
 30
0.0
 10
15.27400572888723
 20
19.35586466730764
 30
0.0
 10
15.27400572888723
 20
19.35586466730764
 30
0.0
 10
15.04491284071432
 20
20.04308268914538
 30
0.0
 10
15.04491284071432
 20
20.04308268914538
 30
0.0
 10
15.04491284071432
 20
20.04308268914538
 30
0.0
 10
15.04491284071432
 20
20.04308268914538
 30
0.0
 10
14.51040825032159
 20
21.03574273454344
 30
0.0
 10
14.51040825032159
 20
21.03574273454344
 30
0.0
 10
14.51040825032159
 20
21.03574273454344
 30
0.0
 10
14.51040825032159
 20
21.03574273454344
 30
0.0
 10
13.74684109309646
 20
22.25745018610366
 30
0.0
 10
13.74684109309646
 20
22.25745018610366
 30
0.0
 10
13.74684109309646
 20
22.25745018610366
 30
0.0
 10
13.74684109309646
 20
22.25745018610366
 30
0.0
 10
11.76155132364085
 20
24.62451595383671
 30
0.0
 10
11.76155132364085
 20
24.62451595383671
 30
0.0
 10
11.76155132364085
 20
24.62451595383671
 30
0.0
 10
11.76155132364085
 20
24.62451595383671
 30
0.0
 10
11.60885305286607
 20
24.70088024989435
 30
0.0
 10
11.60885305286607
 20
24.70088024989435
 30
0.0
 10
11.60885305286607
 20
24.70088024989435
 30
0.0
 10
11.60885305286607
 20
24.70088024989435
 30
0.0
 10
11.4561244607508
 20
24.16637565950163
 30
0.0
 10
11.4561244607508
 20
24.16637565950163
 30
0.0
 10
11.4561244607508
 20
24.16637565950163
 30
0.0
 10
11.4561244607508
 20
24.16637565950163
 30
0.0
 10
10.53984387208063
 20
23.17373077477382
 30
0.0
 10
10.53984387208063
 20
23.17373077477382
 30
0.0
 10
10.53984387208063
 20
23.17373077477382
 30
0.0
 10
10.53984387208063
 20
23.17373077477382
 30
0.0
 10
10.53984387208063
 20
23.02100218265854
 30
0.0
 10
10.53984387208063
 20
23.02100218265854
 30
0.0
 10
10.53984387208063
 20
23.02100218265854
 30
0.0
 10
10.53984387208063
 20
23.02100218265854
 30
0.0
 10
11.53248875680842
 20
22.02835729793074
 30
0.0
 10
11.53248875680842
 20
22.02835729793074
 30
0.0
 10
11.53248875680842
 20
22.02835729793074
 30
0.0
 10
11.53248875680842
 20
22.02835729793074
 30
0.0
 10
12.67783191231102
 20
20.50123814415072
 30
0.0
 10
12.67783191231102
 20
20.50123814415072
 30
0.0
 10
12.67783191231102
 20
20.50123814415072
 30
0.0
 10
12.67783191231102
 20
20.50123814415072
 30
0.0
 10
14.05226795598651
 20
18.28687064719244
 30
0.0
 10
14.05226795598651
 20
18.28687064719244
 30
0.0
 10
14.05226795598651
 20
18.28687064719244
 30
0.0
 10
14.12863225204415
 20
18.74502610219778
 30
0.0
 10
14.12863225204415
 20
18.74502610219778
 30
0.0
  0
CIRCLE
  5
363
330
1F
100
AcDbEntity
  8
0
100
AcDbCircle
 10
1.300613046640347
 20
30.4658463984522
 30
0.0
 40
0.4722411254887516
  0
CIRCLE
  5
364
330
1F
100
AcDbEntity
  8
0
100
AcDbCircle
 10
2.10236501656691
 20
28.82415539490774
 30
0.0
 40
0.4129617686665963
  0
CIRCLE
  5
365
330
1F
100
AcDbEntity
  8
0
100
AcDbCircle
 10
3.209546100373442
 20
26.95340715387607
 30
0.0
 40
0.4722448026524306
  0
CIRCLE
  5
366
330
1F
100
AcDbEntity
  8
0
100
AcDbCircle
 10
3.705868542737344
 20
25.0063071127844
 30
0.0
 40
0.3760159118291597
  0
CIRCLE
  5
367
330
1F
100
AcDbEntity
  8
0
100
AcDbCircle
 10
4.583974563713813
 20
22.56287704899372
 30
0.0
 40
0.6296683163196475
  0
CIRCLE
  5
368
330
1F
100
AcDbEntity
  8
0
100
AcDbCircle
 10
5.767515027915463
 20
20.65394399526062
 30
0.0
 40
0.4468743173824029
  0
CIRCLE
  5
369
330
1F
100
AcDbEntity
  8
0
100
AcDbCircle
 10
6.855613284276995
 20
19.20315236148984
 30
0.0
 40
0.4186548943088432
  0
CIRCLE
  5
36A
330
1F
100
AcDbEntity
  8
0
100
AcDbCircle
 10
8.325491535792611
 20
17.42784811989526
 30
0.0
 40
0.3935387449214185
  0
SPLINE
  5
3BD
330
1F
100
AcDbEntity
  8
Layer 1
100
AcDbSpline
210
0.0
220
0.0
230
1.0
 70
    11
 71
     3
 72
   669
 73
   665
 74
     0
 42
0.000000001
 43
0.0000000001
 40
0.0
 40
0.0
 40
0.0
 40
0.0
 40
0.0058823429411764
 40
0.0058823529411764
 40
0.0058823529411764
 40
0.0058823529411764
 40
0.0058823629411763
 40
0.0117647058823528
 40
0.0117647058823528
 40
0.0117647058823528
 40
0.0117647158823529
 40
0.0176470588235293
 40
0.0176470588235293
 40
0.0176470588235293
 40
0.0176470688235293
 40
0.0235294117647057
 40
0.0235294117647057
 40
0.0235294117647057
 40
0.0235294217647058
 40
0.0294117647058823
 40
0.0294117647058823
 40
0.0294117647058823
 40
0.0294117747058823
 40
0.0352941176470587
 40
0.0352941176470587
 40
0.0352941176470587
 40
0.0352941276470588
 40
0.0411764705882352
 40
0.0411764705882352
 40
0.0411764705882352
 40
0.0411764805882352
 40
0.0470588235294116
 40
0.0470588235294116
 40
0.0470588235294116
 40
0.0470588335294117
 40
0.0529411764705881
 40
0.0529411764705881
 40
0.0529411764705881
 40
0.0529411864705881
 40
0.0588235294117646
 40
0.0588235294117646
 40
0.0588235294117646
 40
0.0588235394117647
 40
0.0647058823529411
 40
0.0647058823529411
 40
0.0647058823529411
 40
0.0647058923529411
 40
0.0705882352941175
 40
0.0705882352941175
 40
0.0705882352941175
 40
0.0705882452941176
 40
0.076470588235294
 40
0.076470588235294
 40
0.076470588235294
 40
0.076470598235294
 40
0.0823529411764704
 40
0.0823529411764704
 40
0.0823529411764704
 40
0.0823529511764705
 40
0.0882352941176469
 40
0.0882352941176469
 40
0.0882352941176469
 40
0.0882353041176469
 40
0.0941176470588234
 40
0.0941176470588234
 40
0.0941176470588234
 40
0.0941176570588235
 40
0.0999999999999999
 40
0.0999999999999999
 40
0.0999999999999999
 40
0.1000000099999999
 40
0.1058823529411763
 40
0.1058823529411763
 40
0.1058823529411763
 40
0.1058823629411764
 40
0.1117647058823528
 40
0.1117647058823528
 40
0.1117647058823528
 40
0.1117647158823528
 40
0.1176470588235292
 40
0.1176470588235292
 40
0.1176470588235292
 40
0.1176470688235293
 40
0.1235294117647058
 40
0.1235294117647058
 40
0.1235294117647058
 40
0.1235294217647058
 40
0.1294117647058822
 40
0.1294117647058822
 40
0.1294117647058822
 40
0.1294117747058823
 40
0.1352941176470587
 40
0.1352941176470587
 40
0.1352941176470587
 40
0.1352941276470587
 40
0.1411764705882351
 40
0.1411764705882351
 40
0.1411764705882351
 40
0.1411764805882352
 40
0.1470588235294116
 40
0.1470588235294116
 40
0.1470588235294116
 40
0.1470588335294116
 40
0.1529411764705881
 40
0.1529411764705881
 40
0.1529411764705881
 40
0.1529411864705882
 40
0.1588235294117646
 40
0.1588235294117646
 40
0.1588235294117646
 40
0.1588235394117646
 40
0.164705882352941
 40
0.164705882352941
 40
0.164705882352941
 40
0.1647058923529411
 40
0.1705882352941175
 40
0.1705882352941175
 40
0.1705882352941175
 40
0.1705882452941175
 40
0.1764705882352939
 40
0.1764705882352939
 40
0.1764705882352939
 40
0.176470598235294
 40
0.1823529411764704
 40
0.1823529411764704
 40
0.1823529411764704
 40
0.1823529511764704
 40
0.1882352941176469
 40
0.1882352941176469
 40
0.1882352941176469
 40
0.188235304117647
 40
0.1941176470588234
 40
0.1941176470588234
 40
0.1941176470588234
 40
0.1941176570588234
 40
0.1999999999999998
 40
0.1999999999999998
 40
0.1999999999999998
 40
0.2000000099999999
 40
0.2058823529411763
 40
0.2058823529411763
 40
0.2058823529411763
 40
0.2058823629411763
 40
0.2117647058823527
 40
0.2117647058823527
 40
0.2117647058823527
 40
0.2117647158823528
 40
0.2176470588235293
 40
0.2176470588235293
 40
0.2176470588235293
 40
0.2176470688235294
 40
0.2235294117647059
 40
0.2235294117647059
 40
0.2235294117647059
 40
0.2235294217647059
 40
0.2294117647058822
 40
0.2294117647058822
 40
0.2294117647058822
 40
0.2294117747058823
 40
0.2352941176470586
 40
0.2352941176470586
 40
0.2352941176470586
 40
0.2352941276470587
 40
0.2411764705882351
 40
0.2411764705882351
 40
0.2411764705882351
 40
0.2411764805882352
 40
0.2470588235294117
 40
0.2470588235294117
 40
0.2470588235294117
 40
0.2470588335294117
 40
0.2529411764705881
 40
0.2529411764705881
 40
0.2529411764705881
 40
0.2529411864705882
 40
0.2588235294117647
 40
0.2588235294117647
 40
0.2588235294117647
 40
0.2588235394117646
 40
0.2647058823529411
 40
0.2647058823529411
 40
0.2647058823529411
 40
0.2647058923529411
 40
0.2705882352941176
 40
0.2705882352941176
 40
0.2705882352941176
 40
0.2705882452941175
 40
0.276470588235294
 40
0.276470588235294
 40
0.276470588235294
 40
0.276470598235294
 40
0.2823529411764704
 40
0.2823529411764704
 40
0.2823529411764704
 40
0.2823529511764705
 40
0.2882352941176468
 40
0.2882352941176468
 40
0.2882352941176468
 40
0.288235304117647
 40
0.2941176470588233
 40
0.2941176470588233
 40
0.2941176470588233
 40
0.2941176570588234
 40
0.2999999999999998
 40
0.2999999999999998
 40
0.2999999999999998
 40
0.3000000099999998
 40
0.3058823529411762
 40
0.3058823529411762
 40
0.3058823529411762
 40
0.3058823629411763
 40
0.3117647058823529
 40
0.3117647058823529
 40
0.3117647058823529
 40
0.3117647158823529
 40
0.3176470588235294
 40
0.3176470588235294
 40
0.3176470588235294
 40
0.3176470688235293
 40
0.3235294117647058
 40
0.3235294117647058
 40
0.3235294117647058
 40
0.3235294217647058
 40
0.3294117647058823
 40
0.3294117647058823
 40
0.3294117647058823
 40
0.3294117747058822
 40
0.3352941176470587
 40
0.3352941176470587
 40
0.3352941176470587
 40
0.3352941276470587
 40
0.3411764705882351
 40
0.3411764705882351
 40
0.3411764705882351
 40
0.3411764805882353
 40
0.3470588235294115
 40
0.3470588235294115
 40
0.3470588235294115
 40
0.3470588335294117
 40
0.3529411764705879
 40
0.3529411764705879
 40
0.3529411764705879
 40
0.3529411864705882
 40
0.3588235294117644
 40
0.3588235294117644
 40
0.3588235294117644
 40
0.3588235394117646
 40
0.3647058823529409
 40
0.3647058823529409
 40
0.3647058823529409
 40
0.3647058923529411
 40
0.3705882352941173
 40
0.3705882352941173
 40
0.3705882352941173
 40
0.3705882452941175
 40
0.3764705882352941
 40
0.3764705882352941
 40
0.3764705882352941
 40
0.376470598235294
 40
0.3823529411764706
 40
0.3823529411764706
 40
0.3823529411764706
 40
0.3823529511764705
 40
0.388235294117647
 40
0.388235294117647
 40
0.388235294117647
 40
0.388235304117647
 40
0.3941176470588235
 40
0.3941176470588235
 40
0.3941176470588235
 40
0.3941176570588234
 40
0.3999999999999999
 40
0.3999999999999999
 40
0.3999999999999999
 40
0.4000000100000001
 40
0.4058823529411763
 40
0.4058823529411763
 40
0.4058823529411763
 40
0.4058823629411764
 40
0.4117647058823528
 40
0.4117647058823528
 40
0.4117647058823528
 40
0.4117647158823531
 40
0.4176470588235295
 40
0.4176470588235295
 40
0.4176470588235295
 40
0.4176470688235292
 40
0.4235294117647057
 40
0.4235294117647057
 40
0.4235294117647057
 40
0.4235294217647059
 40
0.4294117647058821
 40
0.4294117647058821
 40
0.4294117647058821
 40
0.4294117747058822
 40
0.4352941176470587
 40
0.4352941176470587
 40
0.4352941176470587
 40
0.4352941276470589
 40
0.4411764705882355
 40
0.4411764705882355
 40
0.4411764705882355
 40
0.4411764805882353
 40
0.4470588235294118
 40
0.4470588235294118
 40
0.4470588235294118
 40
0.4470588335294118
 40
0.4529411764705879
 40
0.4529411764705879
 40
0.4529411764705879
 40
0.4529411864705879
 40
0.4588235294117644
 40
0.4588235294117644
 40
0.4588235294117644
 40
0.4588235394117647
 40
0.4647058823529413
 40
0.4647058823529413
 40
0.4647058823529413
 40
0.4647058923529411
 40
0.4705882352941177
 40
0.4705882352941177
 40
0.4705882352941177
 40
0.4705882452941178
 40
0.4764705882352942
 40
0.4764705882352942
 40
0.4764705882352942
 40
0.4764705982352944
 40
0.4823529411764705
 40
0.4823529411764705
 40
0.4823529411764705
 40
0.4823529511764705
 40
0.4882352941176471
 40
0.4882352941176471
 40
0.4882352941176471
 40
0.4882353041176469
 40
0.4941176470588238
 40
0.4941176470588238
 40
0.4941176470588238
 40
0.4999999900000005
 40
0.5000000000000006
 40
0.5000000000000006
 40
0.5000000000000006
 40
0.505882342941177
 40
0.5058823529411769
 40
0.5058823529411769
 40
0.5058823529411769
 40
0.5117646958823532
 40
0.5117647058823535
 40
0.5117647058823535
 40
0.5117647058823535
 40
0.5176470488235296
 40
0.5176470588235297
 40
0.5176470588235297
 40
0.5176470588235297
 40
0.5235294017647063
 40
0.5235294117647064
 40
0.5235294117647064
 40
0.5235294117647064
 40
0.5294117547058829
 40
0.529411764705883
 40
0.529411764705883
 40
0.529411764705883
 40
0.5352941076470593
 40
0.5352941176470594
 40
0.5352941176470594
 40
0.5352941176470594
 40
0.5411764605882357
 40
0.5411764705882357
 40
0.5411764705882357
 40
0.5411764705882357
 40
0.5470588135294121
 40
0.5470588235294122
 40
0.5470588235294122
 40
0.5470588235294122
 40
0.5529411664705886
 40
0.5529411764705885
 40
0.5529411764705885
 40
0.5529411764705885
 40
0.5588235194117651
 40
0.5588235294117652
 40
0.5588235294117652
 40
0.5588235294117652
 40
0.5647058723529418
 40
0.564705882352942
 40
0.564705882352942
 40
0.564705882352942
 40
0.5705882252941184
 40
0.5705882352941182
 40
0.5705882352941182
 40
0.5705882352941182
 40
0.5764705782352945
 40
0.5764705882352948
 40
0.5764705882352948
 40
0.5764705882352948
 40
0.5823529311764709
 40
0.5823529411764711
 40
0.5823529411764711
 40
0.5823529411764711
 40
0.5882352841176476
 40
0.5882352941176478
 40
0.5882352941176478
 40
0.5882352941176478
 40
0.5941176370588242
 40
0.594117647058824
 40
0.594117647058824
 40
0.594117647058824
 40
0.5999999900000005
 40
0.6000000000000007
 40
0.6000000000000007
 40
0.6000000000000007
 40
0.605882342941177
 40
0.6058823529411769
 40
0.6058823529411769
 40
0.6058823529411769
 40
0.6117646958823534
 40
0.6117647058823536
 40
0.6117647058823536
 40
0.6117647058823536
 40
0.6176470488235301
 40
0.6176470588235299
 40
0.6176470588235299
 40
0.6176470588235299
 40
0.6235294017647063
 40
0.6235294117647065
 40
0.6235294117647065
 40
0.6235294117647065
 40
0.629411754705883
 40
0.6294117647058828
 40
0.6294117647058828
 40
0.6294117647058828
 40
0.6352941076470592
 40
0.6352941176470594
 40
0.6352941176470594
 40
0.6352941176470594
 40
0.6411764605882359
 40
0.6411764705882357
 40
0.6411764705882357
 40
0.6411764705882357
 40
0.6470588135294121
 40
0.6470588235294123
 40
0.6470588235294123
 40
0.6470588235294123
 40
0.6529411664705888
 40
0.6529411764705887
 40
0.6529411764705887
 40
0.6529411764705887
 40
0.6588235194117651
 40
0.6588235294117652
 40
0.6588235294117652
 40
0.6588235294117652
 40
0.6647058723529417
 40
0.6647058823529416
 40
0.6647058823529416
 40
0.6647058823529416
 40
0.6705882252941179
 40
0.6705882352941181
 40
0.6705882352941181
 40
0.6705882352941181
 40
0.6764705782352946
 40
0.6764705882352945
 40
0.6764705882352945
 40
0.6764705882352945
 40
0.6823529311764711
 40
0.6823529411764712
 40
0.6823529411764712
 40
0.6823529411764712
 40
0.6882352841176476
 40
0.6882352941176478
 40
0.6882352941176478
 40
0.6882352941176478
 40
0.6941176370588239
 40
0.6941176470588239
 40
0.6941176470588239
 40
0.6941176470588239
 40
0.6999999900000004
 40
0.7000000000000004
 40
0.7000000000000004
 40
0.7000000000000004
 40
0.7058823429411768
 40
0.7058823529411768
 40
0.7058823529411768
 40
0.7058823529411768
 40
0.7117646958823534
 40
0.7117647058823536
 40
0.7117647058823536
 40
0.7117647058823536
 40
0.7176470488235298
 40
0.7176470588235299
 40
0.7176470588235299
 40
0.7176470588235299
 40
0.7235294017647063
 40
0.7235294117647065
 40
0.7235294117647065
 40
0.7235294117647065
 40
0.7294117547058827
 40
0.7294117647058828
 40
0.7294117647058828
 40
0.7294117647058828
 40
0.7352941076470592
 40
0.7352941176470594
 40
0.7352941176470594
 40
0.7352941176470594
 40
0.7411764605882356
 40
0.7411764705882357
 40
0.7411764705882357
 40
0.7411764705882357
 40
0.7470588135294122
 40
0.7470588235294123
 40
0.7470588235294123
 40
0.7470588235294123
 40
0.7529411664705889
 40
0.7529411764705887
 40
0.7529411764705887
 40
0.7529411764705887
 40
0.7588235194117651
 40
0.7588235294117652
 40
0.7588235294117652
 40
0.7588235294117652
 40
0.7647058723529414
 40
0.7647058823529415
 40
0.7647058823529415
 40
0.7647058823529415
 40
0.770588225294118
 40
0.7705882352941181
 40
0.7705882352941181
 40
0.7705882352941181
 40
0.7764705782352948
 40
0.7764705882352946
 40
0.7764705882352946
 40
0.7764705882352946
 40
0.782352931176471
 40
0.782352941176471
 40
0.782352941176471
 40
0.782352941176471
 40
0.7882352841176477
 40
0.7882352941176475
 40
0.7882352941176475
 40
0.7882352941176475
 40
0.7941176370588239
 40
0.7941176470588239
 40
0.7941176470588239
 40
0.7941176470588239
 40
0.7999999900000006
 40
0.8000000000000003
 40
0.8000000000000003
 40
0.8000000000000003
 40
0.8058823429411765
 40
0.8058823529411769
 40
0.8058823529411769
 40
0.8058823529411769
 40
0.8117646958823533
 40
0.8117647058823534
 40
0.8117647058823534
 40
0.8117647058823534
 40
0.8176470488235294
 40
0.8176470588235298
 40
0.8176470588235298
 40
0.8176470588235298
 40
0.8235294017647062
 40
0.8235294117647063
 40
0.8235294117647063
 40
0.8235294117647063
 40
0.8294117547058823
 40
0.8294117647058827
 40
0.8294117647058827
 40
0.8294117647058827
 40
0.8352941076470591
 40
0.8352941176470592
 40
0.8352941176470592
 40
0.8352941176470592
 40
0.8411764605882357
 40
0.8411764705882356
 40
0.8411764705882356
 40
0.8411764705882356
 40
0.8470588135294121
 40
0.8470588235294121
 40
0.8470588235294121
 40
0.8470588235294121
 40
0.8529411664705886
 40
0.8529411764705885
 40
0.8529411764705885
 40
0.8529411764705885
 40
0.858823519411765
 40
0.858823529411765
 40
0.858823529411765
 40
0.858823529411765
 40
0.8647058723529415
 40
0.8647058823529414
 40
0.8647058823529414
 40
0.8647058823529414
 40
0.8705882252941179
 40
0.8705882352941181
 40
0.8705882352941181
 40
0.8705882352941181
 40
0.8764705782352944
 40
0.8764705882352943
 40
0.8764705882352943
 40
0.8764705882352943
 40
0.8823529311764708
 40
0.882352941176471
 40
0.882352941176471
 40
0.882352941176471
 40
0.8882352841176473
 40
0.8882352941176472
 40
0.8882352941176472
 40
0.8882352941176472
 40
0.8941176370588237
 40
0.8941176470588239
 40
0.8941176470588239
 40
0.8941176470588239
 40
0.8999999900000004
 40
0.9000000000000005
 40
0.9000000000000005
 40
0.9000000000000005
 40
0.9058823429411766
 40
0.9058823529411768
 40
0.9058823529411768
 40
0.9058823529411768
 40
0.9117646958823531
 40
0.9117647058823534
 40
0.9117647058823534
 40
0.9117647058823534
 40
0.9176470488235295
 40
0.9176470588235298
 40
0.9176470588235298
 40
0.9176470588235298
 40
0.9235294017647062
 40
0.9235294117647063
 40
0.9235294117647063
 40
0.9235294117647063
 40
0.9294117547058824
 40
0.9294117647058827
 40
0.9294117647058827
 40
0.9294117647058827
 40
0.9352941076470592
 40
0.9352941176470592
 40
0.9352941176470592
 40
0.9352941176470592
 40
0.9411764605882355
 40
0.9411764705882356
 40
0.9411764705882356
 40
0.9411764705882356
 40
0.947058813529412
 40
0.9470588235294119
 40
0.9470588235294119
 40
0.9470588235294119
 40
0.9529411664705886
 40
0.9529411764705884
 40
0.9529411764705884
 40
0.9529411764705884
 40
0.958823519411765
 40
0.958823529411765
 40
0.958823529411765
 40
0.958823529411765
 40
0.9647058723529415
 40
0.9647058823529416
 40
0.9647058823529416
 40
0.9647058823529416
 40
0.9705882252941179
 40
0.9705882352941179
 40
0.9705882352941179
 40
0.9705882352941179
 40
0.9764705782352944
 40
0.9764705882352943
 40
0.9764705882352943
 40
0.9764705882352943
 40
0.9764705882352943
 10
17.64105633595002
 20
12.56006390565804
 30
0.0
 10
17.64105633595002
 20
12.56006390565804
 30
0.0
 10
17.96557206199135
 20
12.18145685587767
 30
0.0
 10
17.96557206199135
 20
12.18145685587767
 30
0.0
 10
17.96557206199135
 20
12.18145685587767
 30
0.0
 10
17.96557206199135
 20
12.18145685587767
 30
0.0
 10
17.96557206199135
 20
12.18145685587767
 30
0.0
 10
18.29008778803268
 20
12.56006390565804
 30
0.0
 10
18.29008778803268
 20
12.56006390565804
 30
0.0
 10
18.29008778803268
 20
12.56006390565804
 30
0.0
 10
18.29008778803268
 20
12.56006390565804
 30
0.0
 10
18.59551465092273
 20
13.5527239510561
 30
0.0
 10
18.59551465092273
 20
13.5527239510561
 30
0.0
 10
18.59551465092273
 20
13.5527239510561
 30
0.0
 10
18.59551465092273
 20
13.5527239510561
 30
0.0
 10
19.13001924131545
 20
16.83608546812956
 30
0.0
 10
19.13001924131545
 20
16.83608546812956
 30
0.0
 10
19.13001924131545
 20
16.83608546812956
 30
0.0
 10
19.13001924131545
 20
16.83608546812956
 30
0.0
 10
19.43543094353526
 20
16.30158087773684
 30
0.0
 10
19.43543094353526
 20
16.30158087773684
 30
0.0
 10
19.43543094353526
 20
16.30158087773684
 30
0.0
 10
19.43543094353526
 20
16.30158087773684
 30
0.0
 10
19.81722210248294
 20
15.30893599300903
 30
0.0
 10
19.81722210248294
 20
15.30893599300903
 30
0.0
 10
19.81722210248294
 20
15.30893599300903
 30
0.0
 10
19.81722210248294
 20
15.30893599300903
 30
0.0
 10
19.96995069459823
 20
14.31627594761098
 30
0.0
 10
19.96995069459823
 20
14.31627594761098
 30
0.0
 10
19.96995069459823
 20
14.31627594761098
 30
0.0
 10
19.96995069459823
 20
14.31627594761098
 30
0.0
 10
19.96995069459823
 20
13.5527239510561
 30
0.0
 10
19.96995069459823
 20
13.5527239510561
 30
0.0
 10
19.96995069459823
 20
13.5527239510561
 30
0.0
 10
19.96995069459823
 20
13.5527239510561
 30
0.0
 10
18.97729064920017
 20
8.05499493702436
 30
0.0
 10
18.97729064920017
 20
8.05499493702436
 30
0.0
 10
18.97729064920017
 20
8.05499493702436
 30
0.0
 10
18.97729064920017
 20
8.05499493702436
 30
0.0
 10
18.90092635314253
 20
7.367792075856863
 30
0.0
 10
18.90092635314253
 20
7.367792075856863
 30
0.0
 10
18.90092635314253
 20
7.367792075856863
 30
0.0
 10
18.90092635314253
 20
7.367792075856863
 30
0.0
 10
19.05365494525782
 20
6.985985756238918
 30
0.0
 10
19.05365494525782
 20
6.985985756238918
 30
0.0
 10
19.05365494525782
 20
6.985985756238918
 30
0.0
 10
19.05365494525782
 20
6.985985756238918
 30
0.0
 10
19.28271751209023
 20
6.909651781521781
 30
0.0
 10
19.28271751209023
 20
6.909651781521781
 30
0.0
 10
19.28271751209023
 20
6.909651781521781
 30
0.0
 10
19.28271751209023
 20
6.909651781521781
 30
0.0
 10
19.5117952395929
 20
6.833287485464142
 30
0.0
 10
19.5117952395929
 20
6.833287485464142
 30
0.0
 10
19.5117952395929
 20
6.833287485464142
 30
0.0
 10
19.5117952395929
 20
6.833287485464142
 30
0.0
 10
19.58815953565054
 20
6.756923189406503
 30
0.0
 10
19.58815953565054
 20
6.756923189406503
 30
0.0
 10
19.58815953565054
 20
6.756923189406503
 30
0.0
 10
19.58815953565054
 20
6.756923189406503
 30
0.0
 10
19.58815953565054
 20
6.222418599013781
 30
0.0
 10
19.58815953565054
 20
6.222418599013781
 30
0.0
 10
19.58815953565054
 20
6.222418599013781
 30
0.0
 10
19.58815953565054
 20
6.222418599013781
 30
0.0
 10
19.74085780642531
 20
5.917006896793978
 30
0.0
 10
19.74085780642531
 20
5.917006896793978
 30
0.0
 10
19.74085780642531
 20
5.917006896793978
 30
0.0
 10
19.74085780642531
 20
5.917006896793978
 30
0.0
 10
20.04629982998562
 20
5.7642783046787
 30
0.0
 10
20.04629982998562
 20
5.7642783046787
 30
0.0
 10
20.04629982998562
 20
5.7642783046787
 30
0.0
 10
20.04629982998562
 20
5.7642783046787
 30
0.0
 10
20.58078925970809
 20
5.687914008621062
 30
0.0
 10
20.58078925970809
 20
5.687914008621062
 30
0.0
 10
20.58078925970809
 20
5.687914008621062
 30
0.0
 10
20.58078925970809
 20
5.687914008621062
 30
0.0
 10
20.80986698721076
 20
5.458866602458899
 30
0.0
 10
20.80986698721076
 20
5.458866602458899
 30
0.0
 10
20.80986698721076
 20
5.458866602458899
 30
0.0
 10
20.80986698721076
 20
5.458866602458899
 30
0.0
 10
20.8862312832684
 20
4.924362012066175
 30
0.0
 10
20.8862312832684
 20
4.924362012066175
 30
0.0
 10
20.8862312832684
 20
4.924362012066175
 30
0.0
 10
20.8862312832684
 20
4.924362012066175
 30
0.0
 10
20.73350269115312
 20
3.397197376275398
 30
0.0
 10
20.73350269115312
 20
3.397197376275398
 30
0.0
 10
20.73350269115312
 20
3.397197376275398
 30
0.0
 10
20.73350269115312
 20
3.397197376275398
 30
0.0
 10
20.8862312832684
 20
3.015421377997953
 30
0.0
 10
20.8862312832684
 20
3.015421377997953
 30
0.0
 10
20.8862312832684
 20
3.015421377997953
 30
0.0
 10
20.8862312832684
 20
3.015421377997953
 30
0.0
 10
21.11529385010082
 20
2.709994515107901
 30
0.0
 10
21.11529385010082
 20
2.709994515107901
 30
0.0
 10
21.11529385010082
 20
2.709994515107901
 30
0.0
 10
21.11529385010082
 20
2.709994515107901
 30
0.0
 10
21.34437157760348
 20
2.633645379720514
 30
0.0
 10
21.34437157760348
 20
2.633645379720514
 30
0.0
 10
21.34437157760348
 20
2.633645379720514
 30
0.0
 10
21.34437157760348
 20
2.633645379720514
 30
0.0
 10
21.64979844049353
 20
2.78635881116554
 30
0.0
 10
21.64979844049353
 20
2.78635881116554
 30
0.0
 10
21.64979844049353
 20
2.78635881116554
 30
0.0
 10
21.64979844049353
 20
2.78635881116554
 30
0.0
 10
21.80251187193856
 20
3.091785674055596
 30
0.0
 10
21.80251187193856
 20
3.091785674055596
 30
0.0
 10
21.80251187193856
 20
3.091785674055596
 30
0.0
 10
21.80251187193856
 20
3.091785674055596
 30
0.0
 10
21.80251187193856
 20
3.626290264448318
 30
0.0
 10
21.80251187193856
 20
3.626290264448318
 30
0.0
 10
21.80251187193856
 20
3.626290264448318
 30
0.0
 10
21.80251187193856
 20
3.626290264448318
 30
0.0
 10
21.57343414443589
 20
5.306138010343619
 30
0.0
 10
21.57343414443589
 20
5.306138010343619
 30
0.0
 10
21.57343414443589
 20
5.306138010343619
 30
0.0
 10
21.57343414443589
 20
5.306138010343619
 30
0.0
 10
21.57343414443589
 20
5.7642783046787
 30
0.0
 10
21.57343414443589
 20
5.7642783046787
 30
0.0
 10
21.57343414443589
 20
5.7642783046787
 30
0.0
 10
21.57343414443589
 20
5.7642783046787
 30
0.0
 10
21.80251187193856
 20
5.917006896793978
 30
0.0
 10
21.80251187193856
 20
5.917006896793978
 30
0.0
 10
21.80251187193856
 20
5.917006896793978
 30
0.0
 10
21.80251187193856
 20
5.917006896793978
 30
0.0
 10
22.94785502744114
 20
6.069705167568756
 30
0.0
 10
22.94785502744114
 20
6.069705167568756
 30
0.0
 10
22.94785502744114
 20
6.069705167568756
 30
0.0
 10
22.94785502744114
 20
6.069705167568756
 30
0.0
 10
23.48235961783386
 20
6.375147191129062
 30
0.0
 10
23.48235961783386
 20
6.375147191129062
 30
0.0
 10
23.48235961783386
 20
6.375147191129062
 30
0.0
 10
23.48235961783386
 20
6.375147191129062
 30
0.0
 10
24.32229107111664
 20
7.52049034663164
 30
0.0
 10
24.32229107111664
 20
7.52049034663164
 30
0.0
 10
24.32229107111664
 20
7.52049034663164
 30
0.0
 10
24.32229107111664
 20
7.52049034663164
 30
0.0
 10
24.85679566150936
 20
7.749583234804558
 30
0.0
 10
24.85679566150936
 20
7.749583234804558
 30
0.0
 10
24.85679566150936
 20
7.749583234804558
 30
0.0
 10
24.85679566150936
 20
7.749583234804558
 30
0.0
 10
25.2385716597868
 20
8.284087825197277
 30
0.0
 10
25.2385716597868
 20
8.284087825197277
 30
0.0
 10
25.2385716597868
 20
8.284087825197277
 30
0.0
 10
25.2385716597868
 20
8.284087825197277
 30
0.0
 10
25.39130025190209
 20
8.894926390307137
 30
0.0
 10
25.39130025190209
 20
8.894926390307137
 30
0.0
 10
25.39130025190209
 20
8.894926390307137
 30
0.0
 10
25.39130025190209
 20
8.894926390307137
 30
0.0
 10
25.6203628187345
 20
9.200368413867444
 30
0.0
 10
25.6203628187345
 20
9.200368413867444
 30
0.0
 10
25.6203628187345
 20
9.200368413867444
 30
0.0
 10
25.6203628187345
 20
9.200368413867444
 30
0.0
 10
26.3075960012425
 20
9.887571275034943
 30
0.0
 10
26.3075960012425
 20
9.887571275034943
 30
0.0
 10
26.3075960012425
 20
9.887571275034943
 30
0.0
 10
26.3075960012425
 20
9.887571275034943
 30
0.0
 10
26.38394513662988
 20
10.11666416320786
 30
0.0
 10
26.38394513662988
 20
10.11666416320786
 30
0.0
 10
26.38394513662988
 20
10.11666416320786
 30
0.0
 10
26.38394513662988
 20
10.11666416320786
 30
0.0
 10
26.3075960012425
 20
10.65113843226008
 30
0.0
 10
26.3075960012425
 20
10.65113843226008
 30
0.0
 10
26.3075960012425
 20
10.65113843226008
 30
0.0
 10
26.3075960012425
 20
10.65113843226008
 30
0.0
 10
26.07850311306958
 20
11.8728762051608
 30
0.0
 10
26.07850311306958
 20
11.8728762051608
 30
0.0
 10
26.07850311306958
 20
11.8728762051608
 30
0.0
 10
26.07850311306958
 20
11.8728762051608
 30
0.0
 10
26.15486740912722
 20
12.25465220343824
 30
0.0
 10
26.15486740912722
 20
12.25465220343824
 30
0.0
 10
26.15486740912722
 20
12.25465220343824
 30
0.0
 10
26.15486740912722
 20
12.25465220343824
 30
0.0
 10
26.38394513662988
 20
12.8655210898886
 30
0.0
 10
26.38394513662988
 20
12.8655210898886
 30
0.0
 10
26.38394513662988
 20
12.8655210898886
 30
0.0
 10
26.38394513662988
 20
12.8655210898886
 30
0.0
 10
26.38394513662988
 20
13.09456849605076
 30
0.0
 10
26.38394513662988
 20
13.09456849605076
 30
0.0
 10
26.38394513662988
 20
13.09456849605076
 30
0.0
 10
26.38394513662988
 20
13.09456849605076
 30
0.0
 10
26.3075960012425
 20
13.5527239510561
 30
0.0
 10
26.3075960012425
 20
13.5527239510561
 30
0.0
 10
26.3075960012425
 20
13.5527239510561
 30
0.0
 10
26.3075960012425
 20
13.5527239510561
 30
0.0
 10
25.92580484229481
 20
14.08722854144882
 30
0.0
 10
25.92580484229481
 20
14.08722854144882
 30
0.0
 10
25.92580484229481
 20
14.08722854144882
 30
0.0
 10
25.92580484229481
 20
14.08722854144882
 30
0.0
 10
25.2385716597868
 20
14.69809742789918
 30
0.0
 10
25.2385716597868
 20
14.69809742789918
 30
0.0
 10
25.2385716597868
 20
14.69809742789918
 30
0.0
 10
25.2385716597868
 20
14.69809742789918
 30
0.0
 10
24.47501966323192
 20
15.00350913011899
 30
0.0
 10
24.47501966323192
 20
15.00350913011899
 30
0.0
 10
24.47501966323192
 20
15.00350913011899
 30
0.0
 10
24.47501966323192
 20
15.00350913011899
 30
0.0
 10
22.64244332522133
 20
15.76707628734412
 30
0.0
 10
22.64244332522133
 20
15.76707628734412
 30
0.0
 10
22.64244332522133
 20
15.76707628734412
 30
0.0
 10
22.64244332522133
 20
15.76707628734412
 30
0.0
 10
22.48971473310606
 20
15.91980487945939
 30
0.0
 10
22.48971473310606
 20
15.91980487945939
 30
0.0
 10
22.48971473310606
 20
15.91980487945939
 30
0.0
 10
22.48971473310606
 20
15.91980487945939
 30
0.0
 10
25.16222252439941
 20
16.14885228562156
 30
0.0
 10
25.16222252439941
 20
16.14885228562156
 30
0.0
 10
25.16222252439941
 20
16.14885228562156
 30
0.0
 10
25.16222252439941
 20
16.14885228562156
 30
0.0
 10
26.76573629557758
 20
16.37794517379447
 30
0.0
 10
26.76573629557758
 20
16.37794517379447
 30
0.0
 10
26.76573629557758
 20
16.37794517379447
 30
0.0
 10
26.76573629557758
 20
16.37794517379447
 30
0.0
 10
27.68201688424774
 20
16.68335687601428
 30
0.0
 10
27.68201688424774
 20
16.68335687601428
 30
0.0
 10
27.68201688424774
 20
16.68335687601428
 30
0.0
 10
27.68201688424774
 20
16.68335687601428
 30
0.0
 10
29.36186463014305
 20
18.43956891796722
 30
0.0
 10
29.36186463014305
 20
18.43956891796722
 30
0.0
 10
29.36186463014305
 20
18.43956891796722
 30
0.0
 10
29.36186463014305
 20
18.43956891796722
 30
0.0
 10
30.58360240304376
 20
19.81400496164271
 30
0.0
 10
30.58360240304376
 20
19.81400496164271
 30
0.0
 10
30.58360240304376
 20
19.81400496164271
 30
0.0
 10
30.58360240304376
 20
19.81400496164271
 30
0.0
 10
31.80530985460399
 20
21.41751873282089
 30
0.0
 10
31.80530985460399
 20
21.41751873282089
 30
0.0
 10
31.80530985460399
 20
21.41751873282089
 30
0.0
 10
31.80530985460399
 20
21.41751873282089
 30
0.0
 10
32.33981444499671
 20
22.48649759226582
 30
0.0
 10
32.33981444499671
 20
22.48649759226582
 30
0.0
 10
32.33981444499671
 20
22.48649759226582
 30
0.0
 10
32.33981444499671
 20
22.48649759226582
 30
0.0
 10
32.64524130788676
 20
23.40279334160624
 30
0.0
 10
32.64524130788676
 20
23.40279334160624
 30
0.0
 10
32.64524130788676
 20
23.40279334160624
 30
0.0
 10
32.64524130788676
 20
23.40279334160624
 30
0.0
 10
32.72159044327415
 20
24.3190739302764
 30
0.0
 10
32.72159044327415
 20
24.3190739302764
 30
0.0
 10
32.72159044327415
 20
24.3190739302764
 30
0.0
 10
32.72159044327415
 20
24.3190739302764
 30
0.0
 10
33.02701730616421
 20
25.38808311106185
 30
0.0
 10
33.02701730616421
 20
25.38808311106185
 30
0.0
 10
33.02701730616421
 20
25.38808311106185
 30
0.0
 10
33.02701730616421
 20
25.38808311106185
 30
0.0
 10
33.7142504886722
 20
27.14429515301479
 30
0.0
 10
33.7142504886722
 20
27.14429515301479
 30
0.0
 10
33.7142504886722
 20
27.14429515301479
 30
0.0
 10
33.7142504886722
 20
27.14429515301479
 30
0.0
 10
35.77587423284496
 20
31.26758812337103
 30
0.0
 10
35.77587423284496
 20
31.26758812337103
 30
0.0
 10
35.77587423284496
 20
31.26758812337103
 30
0.0
 10
35.77587423284496
 20
31.26758812337103
 30
0.0
 10
35.85223852890259
 20
31.72572841770613
 30
0.0
 10
35.85223852890259
 20
31.72572841770613
 30
0.0
 10
35.85223852890259
 20
31.72572841770613
 30
0.0
 10
35.85223852890259
 20
31.72572841770613
 30
0.0
 10
35.69950993678732
 20
31.72572841770613
 30
0.0
 10
35.69950993678732
 20
31.72572841770613
 30
0.0
 10
35.69950993678732
 20
31.72572841770613
 30
0.0
 10
35.69950993678732
 20
31.72572841770613
 30
0.0
 10
34.78322934811715
 20
31.49668101154395
 30
0.0
 10
34.78322934811715
 20
31.49668101154395
 30
0.0
 10
34.78322934811715
 20
31.49668101154395
 30
0.0
 10
34.78322934811715
 20
31.49668101154395
 30
0.0
 10
32.26345014893907
 20
30.35130753470086
 30
0.0
 10
32.26345014893907
 20
30.35130753470086
 30
0.0
 10
32.26345014893907
 20
30.35130753470086
 30
0.0
 10
32.26345014893907
 20
30.35130753470086
 30
0.0
 10
27.9874437471378
 20
28.13694003774259
 30
0.0
 10
27.9874437471378
 20
28.13694003774259
 30
0.0
 10
27.9874437471378
 20
28.13694003774259
 30
0.0
 10
27.9874437471378
 20
28.13694003774259
 30
0.0
 10
25.00952425362464
 20
26.30437886040226
 30
0.0
 10
25.00952425362464
 20
26.30437886040226
 30
0.0
 10
25.00952425362464
 20
26.30437886040226
 30
0.0
 10
25.00952425362464
 20
26.30437886040226
 30
0.0
 10
23.2533122116717
 20
25.0063071127844
 30
0.0
 10
23.2533122116717
 20
25.0063071127844
 30
0.0
 10
23.2533122116717
 20
25.0063071127844
 30
0.0
 10
23.2533122116717
 20
25.0063071127844
 30
0.0
 10
22.33701646233128
 20
23.86093363594132
 30
0.0
 10
22.33701646233128
 20
23.86093363594132
 30
0.0
 10
22.33701646233128
 20
23.86093363594132
 30
0.0
 10
22.33701646233128
 20
23.86093363594132
 30
0.0
 10
20.73350269115312
 20
21.6465812996533
 30
0.0
 10
20.73350269115312
 20
21.6465812996533
 30
0.0
 10
20.73350269115312
 20
21.6465812996533
 30
0.0
 10
20.73350269115312
 20
21.6465812996533
 30
0.0
 10
19.43543094353526
 20
19.43221380269502
 30
0.0
 10
19.43543094353526
 20
19.43221380269502
 30
0.0
 10
19.43543094353526
 20
19.43221380269502
 30
0.0
 10
19.43543094353526
 20
19.43221380269502
 30
0.0
 10
18.90092635314253
 20
20.34850955203544
 30
0.0
 10
18.90092635314253
 20
20.34850955203544
 30
0.0
 10
18.90092635314253
 20
20.34850955203544
 30
0.0
 10
18.90092635314253
 20
20.34850955203544
 30
0.0
 10
18.97729064920017
 20
21.03574273454344
 30
0.0
 10
18.97729064920017
 20
21.03574273454344
 30
0.0
 10
18.97729064920017
 20
21.03574273454344
 30
0.0
 10
18.97729064920017
 20
21.03574273454344
 30
0.0
 10
18.82457721775515
 20
21.41751873282089
 30
0.0
 10
18.82457721775515
 20
21.41751873282089
 30
0.0
 10
18.82457721775515
 20
21.41751873282089
 30
0.0
 10
18.82457721775515
 20
21.41751873282089
 30
0.0
 10
18.29008778803268
 20
22.02835729793074
 30
0.0
 10
18.29008778803268
 20
22.02835729793074
 30
0.0
 10
18.29008778803268
 20
22.02835729793074
 30
0.0
 10
18.29008778803268
 20
22.02835729793074
 30
0.0
 10
20.4280909889333
 20
24.54816681844933
 30
0.0
 10
20.4280909889333
 20
24.54816681844933
 30
0.0
 10
20.4280909889333
 20
24.54816681844933
 30
0.0
 10
20.4280909889333
 20
24.54816681844933
 30
0.0
 10
21.03892955404317
 20
25.38808311106185
 30
0.0
 10
21.03892955404317
 20
25.38808311106185
 30
0.0
 10
21.03892955404317
 20
25.38808311106185
 30
0.0
 10
21.03892955404317
 20
25.38808311106185
 30
0.0
 10
21.42073587366112
 20
26.53345658790493
 30
0.0
 10
21.42073587366112
 20
26.53345658790493
 30
0.0
 10
21.42073587366112
 20
26.53345658790493
 30
0.0
 10
21.42073587366112
 20
26.53345658790493
 30
0.0
 10
21.42073587366112
 20
27.06793085695715
 30
0.0
 10
21.42073587366112
 20
27.06793085695715
 30
0.0
 10
21.42073587366112
 20
27.06793085695715
 30
0.0
 10
21.42073587366112
 20
27.06793085695715
 30
0.0
 10
20.65713839509548
 20
25.08267140884204
 30
0.0
 10
20.65713839509548
 20
25.08267140884204
 30
0.0
 10
20.65713839509548
 20
25.08267140884204
 30
0.0
 10
20.65713839509548
 20
25.08267140884204
 30
0.0
 10
18.74824324303801
 20
22.79195477649638
 30
0.0
 10
18.74824324303801
 20
22.79195477649638
 30
0.0
 10
18.74824324303801
 20
22.79195477649638
 30
0.0
 10
18.74824324303801
 20
22.79195477649638
 30
0.0
 10
18.21373865264529
 20
22.18108589004602
 30
0.0
 10
18.21373865264529
 20
22.18108589004602
 30
0.0
 10
18.21373865264529
 20
22.18108589004602
 30
0.0
 10
18.21373865264529
 20
22.18108589004602
 30
0.0
 10
17.96557206199135
 20
22.36481627614769
 30
0.0
 10
17.96557206199135
 20
22.36481627614769
 30
0.0
 10
17.96557206199135
 20
22.36481627614769
 30
0.0
 10
17.71740547133741
 20
22.18108589004602
 30
0.0
 10
17.71740547133741
 20
22.18108589004602
 30
0.0
 10
17.71740547133741
 20
22.18108589004602
 30
0.0
 10
17.71740547133741
 20
22.18108589004602
 30
0.0
 10
17.1829008809447
 20
22.79195477649638
 30
0.0
 10
17.1829008809447
 20
22.79195477649638
 30
0.0
 10
17.1829008809447
 20
22.79195477649638
 30
0.0
 10
17.1829008809447
 20
22.79195477649638
 30
0.0
 10
15.27400572888723
 20
25.08267140884204
 30
0.0
 10
15.27400572888723
 20
25.08267140884204
 30
0.0
 10
15.27400572888723
 20
25.08267140884204
 30
0.0
 10
15.27400572888723
 20
25.08267140884204
 30
0.0
 10
14.51040825032159
 20
27.06793085695715
 30
0.0
 10
14.51040825032159
 20
27.06793085695715
 30
0.0
 10
14.51040825032159
 20
27.06793085695715
 30
0.0
 10
14.51040825032159
 20
27.06793085695715
 30
0.0
 10
14.51040825032159
 20
26.53345658790493
 30
0.0
 10
14.51040825032159
 20
26.53345658790493
 30
0.0
 10
14.51040825032159
 20
26.53345658790493
 30
0.0
 10
14.51040825032159
 20
26.53345658790493
 30
0.0
 10
14.89221456993954
 20
25.38808311106185
 30
0.0
 10
14.89221456993954
 20
25.38808311106185
 30
0.0
 10
14.89221456993954
 20
25.38808311106185
 30
0.0
 10
14.89221456993954
 20
25.38808311106185
 30
0.0
 10
15.50305313504939
 20
24.54816681844933
 30
0.0
 10
15.50305313504939
 20
24.54816681844933
 30
0.0
 10
15.50305313504939
 20
24.54816681844933
 30
0.0
 10
15.50305313504939
 20
24.54816681844933
 30
0.0
 10
17.64105633595002
 20
22.02835729793074
 30
0.0
 10
17.64105633595002
 20
22.02835729793074
 30
0.0
 10
17.64105633595002
 20
22.02835729793074
 30
0.0
 10
17.64105633595002
 20
22.02835729793074
 30
0.0
 10
17.10656690622756
 20
21.41751873282089
 30
0.0
 10
17.10656690622756
 20
21.41751873282089
 30
0.0
 10
17.10656690622756
 20
21.41751873282089
 30
0.0
 10
17.10656690622756
 20
21.41751873282089
 30
0.0
 10
16.95385347478253
 20
21.03574273454344
 30
0.0
 10
16.95385347478253
 20
21.03574273454344
 30
0.0
 10
16.95385347478253
 20
21.03574273454344
 30
0.0
 10
16.95385347478253
 20
21.03574273454344
 30
0.0
 10
17.03021777084017
 20
20.34850955203544
 30
0.0
 10
17.03021777084017
 20
20.34850955203544
 30
0.0
 10
17.03021777084017
 20
20.34850955203544
 30
0.0
 10
17.03021777084017
 20
20.34850955203544
 30
0.0
 10
16.49571318044745
 20
19.43221380269502
 30
0.0
 10
16.49571318044745
 20
19.43221380269502
 30
0.0
 10
16.49571318044745
 20
19.43221380269502
 30
0.0
 10
16.49571318044745
 20
19.43221380269502
 30
0.0
 10
15.19764143282959
 20
21.6465812996533
 30
0.0
 10
15.19764143282959
 20
21.6465812996533
 30
0.0
 10
15.19764143282959
 20
21.6465812996533
 30
0.0
 10
15.19764143282959
 20
21.6465812996533
 30
0.0
 10
13.59412766165143
 20
23.86093363594132
 30
0.0
 10
13.59412766165143
 20
23.86093363594132
 30
0.0
 10
13.59412766165143
 20
23.86093363594132
 30
0.0
 10
13.59412766165143
 20
23.86093363594132
 30
0.0
 10
12.67783191231102
 20
25.0063071127844
 30
0.0
 10
12.67783191231102
 20
25.0063071127844
 30
0.0
 10
12.67783191231102
 20
25.0063071127844
 30
0.0
 10
12.67783191231102
 20
25.0063071127844
 30
0.0
 10
10.92161987035808
 20
26.30437886040226
 30
0.0
 10
10.92161987035808
 20
26.30437886040226
 30
0.0
 10
10.92161987035808
 20
26.30437886040226
 30
0.0
 10
10.92161987035808
 20
26.30437886040226
 30
0.0
 10
7.943700376844918
 20
28.13694003774259
 30
0.0
 10
7.943700376844918
 20
28.13694003774259
 30
0.0
 10
7.943700376844918
 20
28.13694003774259
 30
0.0
 10
7.943700376844918
 20
28.13694003774259
 30
0.0
 10
3.667693975043651
 20
30.35130753470086
 30
0.0
 10
3.667693975043651
 20
30.35130753470086
 30
0.0
 10
3.667693975043651
 20
30.35130753470086
 30
0.0
 10
3.667693975043651
 20
30.35130753470086
 30
0.0
 10
1.147914775865573
 20
31.49668101154395
 30
0.0
 10
1.147914775865573
 20
31.49668101154395
 30
0.0
 10
1.147914775865573
 20
31.49668101154395
 30
0.0
 10
1.147914775865573
 20
31.49668101154395
 30
0.0
 10
0.2316341871954081
 20
31.72572841770613
 30
0.0
 10
0.2316341871954081
 20
31.72572841770613
 30
0.0
 10
0.2316341871954081
 20
31.72572841770613
 30
0.0
 10
0.2316341871954081
 20
31.72572841770613
 30
0.0
 10
0.0789055950801286
 20
31.72572841770613
 30
0.0
 10
0.0789055950801286
 20
31.72572841770613
 30
0.0
 10
0.0789055950801286
 20
31.72572841770613
 30
0.0
 10
0.0789055950801286
 20
31.72572841770613
 30
0.0
 10
0.1552698911377693
 20
31.26758812337103
 30
0.0
 10
0.1552698911377693
 20
31.26758812337103
 30
0.0
 10
0.1552698911377693
 20
31.26758812337103
 30
0.0
 10
0.1552698911377693
 20
31.26758812337103
 30
0.0
 10
2.216893635310512
 20
27.14429515301479
 30
0.0
 10
2.216893635310512
 20
27.14429515301479
 30
0.0
 10
2.216893635310512
 20
27.14429515301479
 30
0.0
 10
2.216893635310512
 20
27.14429515301479
 30
0.0
 10
2.904126817818513
 20
25.38808311106185
 30
0.0
 10
2.904126817818513
 20
25.38808311106185
 30
0.0
 10
2.904126817818513
 20
25.38808311106185
 30
0.0
 10
2.904126817818513
 20
25.38808311106185
 30
0.0
 10
3.209553680708568
 20
24.3190739302764
 30
0.0
 10
3.209553680708568
 20
24.3190739302764
 30
0.0
 10
3.209553680708568
 20
24.3190739302764
 30
0.0
 10
3.209553680708568
 20
24.3190739302764
 30
0.0
 10
3.285902816095953
 20
23.40279334160624
 30
0.0
 10
3.285902816095953
 20
23.40279334160624
 30
0.0
 10
3.285902816095953
 20
23.40279334160624
 30
0.0
 10
3.285902816095953
 20
23.40279334160624
 30
0.0
 10
3.59132967898601
 20
22.48649759226582
 30
0.0
 10
3.59132967898601
 20
22.48649759226582
 30
0.0
 10
3.59132967898601
 20
22.48649759226582
 30
0.0
 10
3.59132967898601
 20
22.48649759226582
 30
0.0
 10
4.125834269378731
 20
21.41751873282089
 30
0.0
 10
4.125834269378731
 20
21.41751873282089
 30
0.0
 10
4.125834269378731
 20
21.41751873282089
 30
0.0
 10
4.125834269378731
 20
21.41751873282089
 30
0.0
 10
5.347541720938949
 20
19.81400496164271
 30
0.0
 10
5.347541720938949
 20
19.81400496164271
 30
0.0
 10
5.347541720938949
 20
19.81400496164271
 30
0.0
 10
5.347541720938949
 20
19.81400496164271
 30
0.0
 10
6.56927949383967
 20
18.43956891796722
 30
0.0
 10
6.56927949383967
 20
18.43956891796722
 30
0.0
 10
6.56927949383967
 20
18.43956891796722
 30
0.0
 10
6.56927949383967
 20
18.43956891796722
 30
0.0
 10
8.249127239734972
 20
16.68335687601428
 30
0.0
 10
8.249127239734972
 20
16.68335687601428
 30
0.0
 10
8.249127239734972
 20
16.68335687601428
 30
0.0
 10
8.249127239734972
 20
16.68335687601428
 30
0.0
 10
9.165407828405136
 20
16.37794517379447
 30
0.0
 10
9.165407828405136
 20
16.37794517379447
 30
0.0
 10
9.165407828405136
 20
16.37794517379447
 30
0.0
 10
9.165407828405136
 20
16.37794517379447
 30
0.0
 10
10.7689215995833
 20
16.14885228562156
 30
0.0
 10
10.7689215995833
 20
16.14885228562156
 30
0.0
 10
10.7689215995833
 20
16.14885228562156
 30
0.0
 10
10.7689215995833
 20
16.14885228562156
 30
0.0
 10
13.44142939087666
 20
15.91980487945939
 30
0.0
 10
13.44142939087666
 20
15.91980487945939
 30
0.0
 10
13.44142939087666
 20
15.91980487945939
 30
0.0
 10
13.44142939087666
 20
15.91980487945939
 30
0.0
 10
13.28870079876138
 20
15.76707628734412
 30
0.0
 10
13.28870079876138
 20
15.76707628734412
 30
0.0
 10
13.28870079876138
 20
15.76707628734412
 30
0.0
 10
13.28870079876138
 20
15.76707628734412
 30
0.0
 10
11.4561244607508
 20
15.00350913011899
 30
0.0
 10
11.4561244607508
 20
15.00350913011899
 30
0.0
 10
11.4561244607508
 20
15.00350913011899
 30
0.0
 10
11.4561244607508
 20
15.00350913011899
 30
0.0
 10
10.69257246419591
 20
14.69809742789918
 30
0.0
 10
10.69257246419591
 20
14.69809742789918
 30
0.0
 10
10.69257246419591
 20
14.69809742789918
 30
0.0
 10
10.69257246419591
 20
14.69809742789918
 30
0.0
 10
10.00533928168791
 20
14.08722854144882
 30
0.0
 10
10.00533928168791
 20
14.08722854144882
 30
0.0
 10
10.00533928168791
 20
14.08722854144882
 30
0.0
 10
10.00533928168791
 20
14.08722854144882
 30
0.0
 10
9.623548122740221
 20
13.5527239510561
 30
0.0
 10
9.623548122740221
 20
13.5527239510561
 30
0.0
 10
9.623548122740221
 20
13.5527239510561
 30
0.0
 10
9.623548122740221
 20
13.5527239510561
 30
0.0
 10
9.54719898735283
 20
13.09456849605076
 30
0.0
 10
9.54719898735283
 20
13.09456849605076
 30
0.0
 10
9.54719898735283
 20
13.09456849605076
 30
0.0
 10
9.54719898735283
 20
13.09456849605076
 30
0.0
 10
9.54719898735283
 20
12.8655210898886
 30
0.0
 10
9.54719898735283
 20
12.8655210898886
 30
0.0
 10
9.54719898735283
 20
12.8655210898886
 30
0.0
 10
9.54719898735283
 20
12.8655210898886
 30
0.0
 10
9.776276714855494
 20
12.25465220343824
 30
0.0
 10
9.776276714855494
 20
12.25465220343824
 30
0.0
 10
9.776276714855494
 20
12.25465220343824
 30
0.0
 10
9.776276714855494
 20
12.25465220343824
 30
0.0
 10
9.852641010913137
 20
11.8728762051608
 30
0.0
 10
9.852641010913137
 20
11.8728762051608
 30
0.0
 10
9.852641010913137
 20
11.8728762051608
 30
0.0
 10
9.852641010913137
 20
11.8728762051608
 30
0.0
 10
9.623548122740221
 20
10.65113843226008
 30
0.0
 10
9.623548122740221
 20
10.65113843226008
 30
0.0
 10
9.623548122740221
 20
10.65113843226008
 30
0.0
 10
9.623548122740221
 20
10.65113843226008
 30
0.0
 10
9.54719898735283
 20
10.11666416320786
 30
0.0
 10
9.54719898735283
 20
10.11666416320786
 30
0.0
 10
9.54719898735283
 20
10.11666416320786
 30
0.0
 10
9.54719898735283
 20
10.11666416320786
 30
0.0
 10
9.623548122740221
 20
9.887571275034943
 30
0.0
 10
9.623548122740221
 20
9.887571275034943
 30
0.0
 10
9.623548122740221
 20
9.887571275034943
 30
0.0
 10
9.623548122740221
 20
9.887571275034943
 30
0.0
 10
10.31078130524822
 20
9.200368413867444
 30
0.0
 10
10.31078130524822
 20
9.200368413867444
 30
0.0
 10
10.31078130524822
 20
9.200368413867444
 30
0.0
 10
10.31078130524822
 20
9.200368413867444
 30
0.0
 10
10.53984387208063
 20
8.894926390307137
 30
0.0
 10
10.53984387208063
 20
8.894926390307137
 30
0.0
 10
10.53984387208063
 20
8.894926390307137
 30
0.0
 10
10.53984387208063
 20
8.894926390307137
 30
0.0
 10
10.69257246419591
 20
8.284087825197277
 30
0.0
 10
10.69257246419591
 20
8.284087825197277
 30
0.0
 10
10.69257246419591
 20
8.284087825197277
 30
0.0
 10
10.69257246419591
 20
8.284087825197277
 30
0.0
 10
11.07434846247335
 20
7.749583234804558
 30
0.0
 10
11.07434846247335
 20
7.749583234804558
 30
0.0
 10
11.07434846247335
 20
7.749583234804558
 30
0.0
 10
11.07434846247335
 20
7.749583234804558
 30
0.0
 10
11.60885305286607
 20
7.52049034663164
 30
0.0
 10
11.60885305286607
 20
7.52049034663164
 30
0.0
 10
11.60885305286607
 20
7.52049034663164
 30
0.0
 10
11.60885305286607
 20
7.52049034663164
 30
0.0
 10
12.44878450614885
 20
6.375147191129062
 30
0.0
 10
12.44878450614885
 20
6.375147191129062
 30
0.0
 10
12.44878450614885
 20
6.375147191129062
 30
0.0
 10
12.44878450614885
 20
6.375147191129062
 30
0.0
 10
12.98328909654157
 20
6.069705167568756
 30
0.0
 10
12.98328909654157
 20
6.069705167568756
 30
0.0
 10
12.98328909654157
 20
6.069705167568756
 30
0.0
 10
12.98328909654157
 20
6.069705167568756
 30
0.0
 10
14.12863225204415
 20
5.917006896793978
 30
0.0
 10
14.12863225204415
 20
5.917006896793978
 30
0.0
 10
14.12863225204415
 20
5.917006896793978
 30
0.0
 10
14.12863225204415
 20
5.917006896793978
 30
0.0
 10
14.35770997954682
 20
5.7642783046787
 30
0.0
 10
14.35770997954682
 20
5.7642783046787
 30
0.0
 10
14.35770997954682
 20
5.7642783046787
 30
0.0
 10
14.35770997954682
 20
5.7642783046787
 30
0.0
 10
14.35770997954682
 20
5.306138010343619
 30
0.0
 10
14.35770997954682
 20
5.306138010343619
 30
0.0
 10
14.35770997954682
 20
5.306138010343619
 30
0.0
 10
14.35770997954682
 20
5.306138010343619
 30
0.0
 10
14.12863225204415
 20
3.626290264448318
 30
0.0
 10
14.12863225204415
 20
3.626290264448318
 30
0.0
 10
14.12863225204415
 20
3.626290264448318
 30
0.0
 10
14.12863225204415
 20
3.626290264448318
 30
0.0
 10
14.12863225204415
 20
3.091785674055596
 30
0.0
 10
14.12863225204415
 20
3.091785674055596
 30
0.0
 10
14.12863225204415
 20
3.091785674055596
 30
0.0
 10
14.12863225204415
 20
3.091785674055596
 30
0.0
 10
14.28134568348919
 20
2.78635881116554
 30
0.0
 10
14.28134568348919
 20
2.78635881116554
 30
0.0
 10
14.28134568348919
 20
2.78635881116554
 30
0.0
 10
14.28134568348919
 20
2.78635881116554
 30
0.0
 10
14.58677254637924
 20
2.633645379720514
 30
0.0
 10
14.58677254637924
 20
2.633645379720514
 30
0.0
 10
14.58677254637924
 20
2.633645379720514
 30
0.0
 10
14.58677254637924
 20
2.633645379720514
 30
0.0
 10
14.8158502738819
 20
2.709994515107901
 30
0.0
 10
14.8158502738819
 20
2.709994515107901
 30
0.0
 10
14.8158502738819
 20
2.709994515107901
 30
0.0
 10
14.8158502738819
 20
2.709994515107901
 30
0.0
 10
15.04491284071432
 20
3.015421377997953
 30
0.0
 10
15.04491284071432
 20
3.015421377997953
 30
0.0
 10
15.04491284071432
 20
3.015421377997953
 30
0.0
 10
15.04491284071432
 20
3.015421377997953
 30
0.0
 10
15.19764143282959
 20
3.397197376275398
 30
0.0
 10
15.19764143282959
 20
3.397197376275398
 30
0.0
 10
15.19764143282959
 20
3.397197376275398
 30
0.0
 10
15.19764143282959
 20
3.397197376275398
 30
0.0
 10
15.04491284071432
 20
4.924362012066175
 30
0.0
 10
15.04491284071432
 20
4.924362012066175
 30
0.0
 10
15.04491284071432
 20
4.924362012066175
 30
0.0
 10
15.04491284071432
 20
4.924362012066175
 30
0.0
 10
15.12127713677196
 20
5.458866602458899
 30
0.0
 10
15.12127713677196
 20
5.458866602458899
 30
0.0
 10
15.12127713677196
 20
5.458866602458899
 30
0.0
 10
15.12127713677196
 20
5.458866602458899
 30
0.0
 10
15.35035486427462
 20
5.687914008621062
 30
0.0
 10
15.35035486427462
 20
5.687914008621062
 30
0.0
 10
15.35035486427462
 20
5.687914008621062
 30
0.0
 10
15.35035486427462
 20
5.687914008621062
 30
0.0
 10
15.88484429399709
 20
5.7642783046787
 30
0.0
 10
15.88484429399709
 20
5.7642783046787
 30
0.0
 10
15.88484429399709
 20
5.7642783046787
 30
0.0
 10
15.88484429399709
 20
5.7642783046787
 30
0.0
 10
16.19028631755739
 20
5.917006896793978
 30
0.0
 10
16.19028631755739
 20
5.917006896793978
 30
0.0
 10
16.19028631755739
 20
5.917006896793978
 30
0.0
 10
16.19028631755739
 20
5.917006896793978
 30
0.0
 10
16.34298458833217
 20
6.222418599013781
 30
0.0
 10
16.34298458833217
 20
6.222418599013781
 30
0.0
 10
16.34298458833217
 20
6.222418599013781
 30
0.0
 10
16.34298458833217
 20
6.222418599013781
 30
0.0
 10
16.34298458833217
 20
6.756923189406503
 30
0.0
 10
16.34298458833217
 20
6.756923189406503
 30
0.0
 10
16.34298458833217
 20
6.756923189406503
 30
0.0
 10
16.34298458833217
 20
6.756923189406503
 30
0.0
 10
16.41934888438981
 20
6.833287485464142
 30
0.0
 10
16.41934888438981
 20
6.833287485464142
 30
0.0
 10
16.41934888438981
 20
6.833287485464142
 30
0.0
 10
16.41934888438981
 20
6.833287485464142
 30
0.0
 10
16.64842661189247
 20
6.909651781521781
 30
0.0
 10
16.64842661189247
 20
6.909651781521781
 30
0.0
 10
16.64842661189247
 20
6.909651781521781
 30
0.0
 10
16.64842661189247
 20
6.909651781521781
 30
0.0
 10
16.87748917872489
 20
6.985985756238918
 30
0.0
 10
16.87748917872489
 20
6.985985756238918
 30
0.0
 10
16.87748917872489
 20
6.985985756238918
 30
0.0
 10
16.87748917872489
 20
6.985985756238918
 30
0.0
 10
17.03021777084017
 20
7.367792075856863
 30
0.0
 10
17.03021777084017
 20
7.367792075856863
 30
0.0
 10
17.03021777084017
 20
7.367792075856863
 30
0.0
 10
17.03021777084017
 20
7.367792075856863
 30
0.0
 10
16.95385347478253
 20
8.05499493702436
 30
0.0
 10
16.95385347478253
 20
8.05499493702436
 30
0.0
 10
16.95385347478253
 20
8.05499493702436
 30
0.0
 10
16.95385347478253
 20
8.05499493702436
 30
0.0
 10
15.96119342938447
 20
13.5527239510561
 30
0.0
 10
15.96119342938447
 20
13.5527239510561
 30
0.0
 10
15.96119342938447
 20
13.5527239510561
 30
0.0
 10
15.96119342938447
 20
13.5527239510561
 30
0.0
 10
15.96119342938447
 20
14.31627594761098
 30
0.0
 10
15.96119342938447
 20
14.31627594761098
 30
0.0
 10
15.96119342938447
 20
14.31627594761098
 30
0.0
 10
15.96119342938447
 20
14.31627594761098
 30
0.0
 10
16.11392202149975
 20
15.30893599300903
 30
0.0
 10
16.11392202149975
 20
15.30893599300903
 30
0.0
 10
16.11392202149975
 20
15.30893599300903
 30
0.0
 10
16.11392202149975
 20
15.30893599300903
 30
0.0
 10
16.49571318044745
 20
16.30158087773684
 30
0.0
 10
16.49571318044745
 20
16.30158087773684
 30
0.0
 10
16.49571318044745
 20
16.30158087773684
 30
0.0
 10
16.49571318044745
 20
16.30158087773684
 30
0.0
 10
16.80112488266725
 20
16.83608546812956
 30
0.0
 10
16.80112488266725
 20
16.83608546812956
 30
0.0
 10
16.80112488266725
 20
16.83608546812956
 30
0.0
 10
16.80112488266725
 20
16.83608546812956
 30
0.0
 10
17.33562947305997
 20
13.5527239510561
 30
0.0
 10
17.33562947305997
 20
13.5527239510561
 30
0.0
 10
17.33562947305997
 20
13.5527239510561
 30
0.0
 10
17.33562947305997
 20
13.5527239510561
 30
0.0
 10
17.64105633595002
 20
12.56006390565804
 30
0.0
 10
17.64105633595002
 20
12.56006390565804
 30
0.0
 10
17.64105633595002
 20
12.56006390565804
 30
0.0
  0
SPLINE
  5
3CB
330
1F
100
AcDbEntity
  8
Layer 1
100
AcDbSpline
210
0.0
220
0.0
230
1.0
 70
    11
 71
     3
 72
    60
 73
    56
 74
     0
 42
0.000000001
 43
0.0000000001
 40
0.0
 40
0.0
 40
0.0
 40
0.0
 40
0.00000001
 40
0.0666666666666666
 40
0.0666666666666666
 40
0.0666666666666666
 40
0.0666666766666666
 40
0.1333333333333333
 40
0.1333333333333333
 40
0.1333333333333333
 40
0.1333333433333333
 40
0.2
 40
0.2
 40
0.2
 40
0.20000001
 40
0.2666666666666666
 40
0.2666666666666666
 40
0.2666666666666666
 40
0.2666666766666666
 40
0.3333333333333334
 40
0.3333333333333334
 40
0.3333333333333334
 40
0.3333333433333333
 40
0.4
 40
0.4
 40
0.4
 40
0.4000000100000002
 40
0.4666666666666667
 40
0.4666666666666667
 40
0.4666666666666667
 40
0.4666666766666669
 40
0.5333333333333333
 40
0.5333333333333333
 40
0.5333333333333333
 40
0.5333333433333333
 40
0.6
 40
0.6
 40
0.6
 40
0.6000000100000002
 40
0.6666666666666666
 40
0.6666666666666666
 40
0.6666666666666666
 40
0.6666666766666666
 40
0.7333333333333333
 40
0.7333333333333333
 40
0.7333333333333333
 40
0.7333333433333335
 40
0.8
 40
0.8
 40
0.8
 40
0.8000000099999999
 40
0.9333333333333332
 40
0.9333333333333332
 40
0.9333333333333332
 40
0.9999999999999998
 40
0.9999999999999998
 40
0.9999999999999998
 40
0.9999999999999998
 10
21.80251187193856
 20
18.74502610219778
 30
0.0
 10
21.80251187193856
 20
18.74502610219778
 30
0.0
 10
21.80251187193856
 20
18.74502610219778
 30
0.0
 10
21.57343414443589
 20
18.97407350835994
 30
0.0
 10
21.57343414443589
 20
18.97407350835994
 30
0.0
 10
21.57343414443589
 20
18.97407350835994
 30
0.0
 10
21.57343414443589
 20
18.97407350835994
 30
0.0
 10
20.65713839509548
 20
19.35586466730764
 30
0.0
 10
20.65713839509548
 20
19.35586466730764
 30
0.0
 10
20.65713839509548
 20
19.35586466730764
 30
0.0
 10
20.65713839509548
 20
19.35586466730764
 30
0.0
 10
20.8862312832684
 20
20.04308268914538
 30
0.0
 10
20.8862312832684
 20
20.04308268914538
 30
0.0
 10
20.8862312832684
 20
20.04308268914538
 30
0.0
 10
20.8862312832684
 20
20.04308268914538
 30
0.0
 10
21.42073587366112
 20
21.03574273454344
 30
0.0
 10
21.42073587366112
 20
21.03574273454344
 30
0.0
 10
21.42073587366112
 20
21.03574273454344
 30
0.0
 10
21.42073587366112
 20
21.03574273454344
 30
0.0
 10
22.18430303088625
 20
22.25745018610366
 30
0.0
 10
22.18430303088625
 20
22.25745018610366
 30
0.0
 10
22.18430303088625
 20
22.25745018610366
 30
0.0
 10
22.18430303088625
 20
22.25745018610366
 30
0.0
 10
24.16959280034186
 20
24.62451595383671
 30
0.0
 10
24.16959280034186
 20
24.62451595383671
 30
0.0
 10
24.16959280034186
 20
24.62451595383671
 30
0.0
 10
24.16959280034186
 20
24.62451595383671
 30
0.0
 10
24.32229107111664
 20
24.70088024989435
 30
0.0
 10
24.32229107111664
 20
24.70088024989435
 30
0.0
 10
24.32229107111664
 20
24.70088024989435
 30
0.0
 10
24.32229107111664
 20
24.70088024989435
 30
0.0
 10
24.47501966323192
 20
24.16637565950163
 30
0.0
 10
24.47501966323192
 20
24.16637565950163
 30
0.0
 10
24.47501966323192
 20
24.16637565950163
 30
0.0
 10
24.47501966323192
 20
24.16637565950163
 30
0.0
 10
25.39130025190209
 20
23.17373077477382
 30
0.0
 10
25.39130025190209
 20
23.17373077477382
 30
0.0
 10
25.39130025190209
 20
23.17373077477382
 30
0.0
 10
25.39130025190209
 20
23.17373077477382
 30
0.0
 10
25.39130025190209
 20
23.02100218265854
 30
0.0
 10
25.39130025190209
 20
23.02100218265854
 30
0.0
 10
25.39130025190209
 20
23.02100218265854
 30
0.0
 10
25.39130025190209
 20
23.02100218265854
 30
0.0
 10
24.39865536717428
 20
22.02835729793074
 30
0.0
 10
24.39865536717428
 20
22.02835729793074
 30
0.0
 10
24.39865536717428
 20
22.02835729793074
 30
0.0
 10
24.39865536717428
 20
22.02835729793074
 30
0.0
 10
23.2533122116717
 20
20.50123814415072
 30
0.0
 10
23.2533122116717
 20
20.50123814415072
 30
0.0
 10
23.2533122116717
 20
20.50123814415072
 30
0.0
 10
23.2533122116717
 20
20.50123814415072
 30
0.0
 10
21.8788761679962
 20
18.28687064719244
 30
0.0
 10
21.8788761679962
 20
18.28687064719244
 30
0.0
 10
21.8788761679962
 20
18.28687064719244
 30
0.0
 10
21.80251187193856
 20
18.74502610219778
 30
0.0
 10
21.80251187193856
 20
18.74502610219778
 30
0.0
  0
SPLINE
  5
3EC
330
1F
100
AcDbEntity
  8
Layer 1
100
AcDbSpline
210
0.0
220
0.0
230
1.0
 70
    11
 71
     3
 72
   136
 73
   132
 74
     0
 42
0.000000001
 43
0.0000000001
 40
0.0
 40
0.0
 40
0.0
 40
0.0
 40
0.00000001
 40
0.0285714285714285
 40
0.0285714285714285
 40
0.0285714285714285
 40
0.0285714385714285
 40
0.0571428571428571
 40
0.0571428571428571
 40
0.0571428571428571
 40
0.0571428671428571
 40
0.0857142857142858
 40
0.0857142857142858
 40
0.0857142857142858
 40
0.0857142957142857
 40
0.1142857142857142
 40
0.1142857142857142
 40
0.1142857142857142
 40
0.1142857242857142
 40
0.1428571428571428
 40
0.1428571428571428
 40
0.1428571428571428
 40
0.1428571528571428
 40
0.1714285714285714
 40
0.1714285714285714
 40
0.1714285714285714
 40
0.1714285814285714
 40
0.2
 40
0.2
 40
0.2
 40
0.2000000099999999
 40
0.2285714285714286
 40
0.2285714285714286
 40
0.2285714285714286
 40
0.2285714385714285
 40
0.2571428571428571
 40
0.2571428571428571
 40
0.2571428571428571
 40
0.2571428671428571
 40
0.2857142857142857
 40
0.2857142857142857
 40
0.2857142857142857
 40
0.2857142957142857
 40
0.3142857142857143
 40
0.3142857142857143
 40
0.3142857142857143
 40
0.3142857242857143
 40
0.3428571428571428
 40
0.3428571428571428
 40
0.3428571428571428
 40
0.3428571528571427
 40
0.3714285714285714
 40
0.3714285714285714
 40
0.3714285714285714
 40
0.3714285814285715
 40
0.3999999999999999
 40
0.3999999999999999
 40
0.3999999999999999
 40
0.4000000100000002
 40
0.4285714285714285
 40
0.4285714285714285
 40
0.4285714285714285
 40
0.4285714385714286
 40
0.4571428571428572
 40
0.4571428571428572
 40
0.4571428571428572
 40
0.4571428671428572
 40
0.4857142857142857
 40
0.4857142857142857
 40
0.4857142857142857
 40
0.4857142957142857
 40
0.5142857142857144
 40
0.5142857142857144
 40
0.5142857142857144
 40
0.5142857242857143
 40
0.5428571428571429
 40
0.5428571428571429
 40
0.5428571428571429
 40
0.5428571528571429
 40
0.5714285714285713
 40
0.5714285714285713
 40
0.5714285714285713
 40
0.5714285814285715
 40
0.6000000000000001
 40
0.6000000000000001
 40
0.6000000000000001
 40
0.6000000100000003
 40
0.6285714285714285
 40
0.6285714285714285
 40
0.6285714285714285
 40
0.6285714385714286
 40
0.6571428571428573
 40
0.6571428571428573
 40
0.6571428571428573
 40
0.6571428671428575
 40
0.6857142857142856
 40
0.6857142857142856
 40
0.6857142857142856
 40
0.6857142957142858
 40
0.7142857142857145
 40
0.7142857142857145
 40
0.7142857142857145
 40
0.7142857242857144
 40
0.7428571428571428
 40
0.7428571428571428
 40
0.7428571428571428
 40
0.7428571528571429
 40
0.7714285714285716
 40
0.7714285714285716
 40
0.7714285714285716
 40
0.7714285814285715
 40
0.8
 40
0.8
 40
0.8
 40
0.8000000100000001
 40
0.8285714285714284
 40
0.8285714285714284
 40
0.8285714285714284
 40
0.8285714385714284
 40
0.8571428571428572
 40
0.8571428571428572
 40
0.8571428571428572
 40
0.857142867142857
 40
0.8857142857142859
 40
0.8857142857142859
 40
0.8857142857142859
 40
0.8857142957142858
 40
0.9428571428571428
 40
0.9428571428571428
 40
0.9428571428571428
 40
0.9714285714285717
 40
0.9714285714285717
 40
0.9714285714285717
 40
0.9714285714285717
 10
24.55138395928956
 20
25.08267140884204
 30
0.0
 10
24.55138395928956
 20
25.08267140884204
 30
0.0
 10
24.55138395928956
 20
25.08267140884204
 30
0.0
 10
24.70406706939408
 20
25.23535451894657
 30
0.0
 10
24.70406706939408
 20
25.23535451894657
 30
0.0
 10
24.70406706939408
 20
25.23535451894657
 30
0.0
 10
24.70406706939408
 20
25.23535451894657
 30
0.0
 10
24.933159957567
 20
25.38808311106185
 30
0.0
 10
24.933159957567
 20
25.38808311106185
 30
0.0
 10
24.933159957567
 20
25.38808311106185
 30
0.0
 10
24.933159957567
 20
25.38808311106185
 30
0.0
 10
25.16222252439941
 20
25.61717599923476
 30
0.0
 10
25.16222252439941
 20
25.61717599923476
 30
0.0
 10
25.16222252439941
 20
25.61717599923476
 30
0.0
 10
25.16222252439941
 20
25.61717599923476
 30
0.0
 10
25.46766454795972
 20
25.84622340539693
 30
0.0
 10
25.46766454795972
 20
25.84622340539693
 30
0.0
 10
25.46766454795972
 20
25.84622340539693
 30
0.0
 10
25.46766454795972
 20
25.84622340539693
 30
0.0
 10
26.07850311306958
 20
26.22801456434463
 30
0.0
 10
26.07850311306958
 20
26.22801456434463
 30
0.0
 10
26.07850311306958
 20
26.22801456434463
 30
0.0
 10
26.07850311306958
 20
26.22801456434463
 30
0.0
 10
26.3075960012425
 20
26.38072799578965
 30
0.0
 10
26.3075960012425
 20
26.38072799578965
 30
0.0
 10
26.3075960012425
 20
26.38072799578965
 30
0.0
 10
26.3075960012425
 20
26.38072799578965
 30
0.0
 10
26.6130077034623
 20
26.53345658790493
 30
0.0
 10
26.6130077034623
 20
26.53345658790493
 30
0.0
 10
26.6130077034623
 20
26.53345658790493
 30
0.0
 10
26.6130077034623
 20
26.53345658790493
 30
0.0
 10
26.76573629557758
 20
26.60979056262207
 30
0.0
 10
26.76573629557758
 20
26.60979056262207
 30
0.0
 10
26.76573629557758
 20
26.60979056262207
 30
0.0
 10
26.76573629557758
 20
26.60979056262207
 30
0.0
 10
26.99478370173974
 20
26.68615485867971
 30
0.0
 10
26.99478370173974
 20
26.68615485867971
 30
0.0
 10
26.99478370173974
 20
26.68615485867971
 30
0.0
 10
26.99478370173974
 20
26.68615485867971
 30
0.0
 10
27.07114799779738
 20
26.76251915473736
 30
0.0
 10
27.07114799779738
 20
26.76251915473736
 30
0.0
 10
27.07114799779738
 20
26.76251915473736
 30
0.0
 10
27.07114799779738
 20
26.76251915473736
 30
0.0
 10
27.14751229385502
 20
26.76251915473736
 30
0.0
 10
27.14751229385502
 20
26.76251915473736
 30
0.0
 10
27.14751229385502
 20
26.76251915473736
 30
0.0
 10
27.14751229385502
 20
26.76251915473736
 30
0.0
 10
27.22387658991266
 20
26.68615485867971
 30
0.0
 10
27.22387658991266
 20
26.68615485867971
 30
0.0
 10
27.22387658991266
 20
26.68615485867971
 30
0.0
 10
27.22387658991266
 20
26.68615485867971
 30
0.0
 10
27.14751229385502
 20
26.60979056262207
 30
0.0
 10
27.14751229385502
 20
26.60979056262207
 30
0.0
 10
27.14751229385502
 20
26.60979056262207
 30
0.0
 10
27.14751229385502
 20
26.60979056262207
 30
0.0
 10
27.07114799779738
 20
26.30437886040226
 30
0.0
 10
27.07114799779738
 20
26.30437886040226
 30
0.0
 10
27.07114799779738
 20
26.30437886040226
 30
0.0
 10
27.07114799779738
 20
26.30437886040226
 30
0.0
 10
26.91844972702261
 20
25.9989519975122
 30
0.0
 10
26.91844972702261
 20
25.9989519975122
 30
0.0
 10
26.91844972702261
 20
25.9989519975122
 30
0.0
 10
26.91844972702261
 20
25.9989519975122
 30
0.0
 10
26.91844972702261
 20
25.61717599923476
 30
0.0
 10
26.91844972702261
 20
25.61717599923476
 30
0.0
 10
26.91844972702261
 20
25.61717599923476
 30
0.0
 10
26.91844972702261
 20
25.61717599923476
 30
0.0
 10
26.91844972702261
 20
25.46444740711948
 30
0.0
 10
26.91844972702261
 20
25.46444740711948
 30
0.0
 10
26.91844972702261
 20
25.46444740711948
 30
0.0
 10
26.91844972702261
 20
25.46444740711948
 30
0.0
 10
26.91844972702261
 20
25.31171881500421
 30
0.0
 10
26.91844972702261
 20
25.31171881500421
 30
0.0
 10
26.91844972702261
 20
25.31171881500421
 30
0.0
 10
26.91844972702261
 20
25.31171881500421
 30
0.0
 10
26.99478370173974
 20
25.15903570489968
 30
0.0
 10
26.99478370173974
 20
25.15903570489968
 30
0.0
 10
26.99478370173974
 20
25.15903570489968
 30
0.0
 10
26.99478370173974
 20
25.15903570489968
 30
0.0
 10
27.07114799779738
 20
25.0063071127844
 30
0.0
 10
27.07114799779738
 20
25.0063071127844
 30
0.0
 10
27.07114799779738
 20
25.0063071127844
 30
0.0
 10
27.07114799779738
 20
25.0063071127844
 30
0.0
 10
27.14751229385502
 20
24.92994281672676
 30
0.0
 10
27.14751229385502
 20
24.92994281672676
 30
0.0
 10
27.14751229385502
 20
24.92994281672676
 30
0.0
 10
27.14751229385502
 20
24.92994281672676
 30
0.0
 10
27.22387658991266
 20
24.77721422461149
 30
0.0
 10
27.22387658991266
 20
24.77721422461149
 30
0.0
 10
27.22387658991266
 20
24.77721422461149
 30
0.0
 10
27.22387658991266
 20
24.77721422461149
 30
0.0
 10
27.22387658991266
 20
24.70088024989435
 30
0.0
 10
27.22387658991266
 20
24.70088024989435
 30
0.0
 10
27.22387658991266
 20
24.70088024989435
 30
0.0
 10
27.22387658991266
 20
24.70088024989435
 30
0.0
 10
27.22387658991266
 20
24.54816681844933
 30
0.0
 10
27.22387658991266
 20
24.54816681844933
 30
0.0
 10
27.22387658991266
 20
24.54816681844933
 30
0.0
 10
27.22387658991266
 20
24.54816681844933
 30
0.0
 10
27.07114799779738
 20
24.39543822633404
 30
0.0
 10
27.07114799779738
 20
24.39543822633404
 30
0.0
 10
27.07114799779738
 20
24.39543822633404
 30
0.0
 10
27.07114799779738
 20
24.39543822633404
 30
0.0
 10
26.91844972702261
 20
24.16637565950163
 30
0.0
 10
26.91844972702261
 20
24.16637565950163
 30
0.0
 10
26.91844972702261
 20
24.16637565950163
 30
0.0
 10
26.91844972702261
 20
24.16637565950163
 30
0.0
 10
26.53664340740466
 20
23.86093363594132
 30
0.0
 10
26.53664340740466
 20
23.86093363594132
 30
0.0
 10
26.53664340740466
 20
23.86093363594132
 30
0.0
 10
26.53664340740466
 20
23.86093363594132
 30
0.0
 10
26.15486740912722
 20
23.55550677305127
 30
0.0
 10
26.15486740912722
 20
23.55550677305127
 30
0.0
 10
26.15486740912722
 20
23.55550677305127
 30
0.0
 10
26.15486740912722
 20
23.55550677305127
 30
0.0
 10
26.00216913835244
 20
23.40279334160624
 30
0.0
 10
26.00216913835244
 20
23.40279334160624
 30
0.0
 10
26.00216913835244
 20
23.40279334160624
 30
0.0
 10
26.00216913835244
 20
23.40279334160624
 30
0.0
 10
25.92580484229481
 20
23.3264593668891
 30
0.0
 10
25.92580484229481
 20
23.3264593668891
 30
0.0
 10
25.92580484229481
 20
23.3264593668891
 30
0.0
 10
25.92580484229481
 20
23.3264593668891
 30
0.0
 10
25.84944054623716
 20
23.25009507083146
 30
0.0
 10
25.84944054623716
 20
23.25009507083146
 30
0.0
 10
25.84944054623716
 20
23.25009507083146
 30
0.0
 10
25.84944054623716
 20
23.25009507083146
 30
0.0
 10
24.39865536717428
 20
24.92994281672676
 30
0.0
 10
24.39865536717428
 20
24.92994281672676
 30
0.0
 10
24.39865536717428
 20
24.92994281672676
 30
0.0
 10
24.55138395928956
 20
25.08267140884204
 30
0.0
 10
24.55138395928956
 20
25.08267140884204
 30
0.0
  0
SPLINE
  5
3F9
330
1F
100
AcDbEntity
  8
Layer 1
100
AcDbSpline
210
0.0
220
0.0
230
1.0
 70
    11
 71
     3
 72
    56
 73
    52
 74
     0
 42
0.000000001
 43
0.0000000001
 40
0.0
 40
0.0
 40
0.0
 40
0.0
 40
0.00000001
 40
0.0714285714285714
 40
0.0714285714285714
 40
0.0714285714285714
 40
0.0714285814285714
 40
0.1428571428571429
 40
0.1428571428571429
 40
0.1428571428571429
 40
0.1428571528571429
 40
0.2142857142857143
 40
0.2142857142857143
 40
0.2142857142857143
 40
0.2142857242857143
 40
0.2857142857142858
 40
0.2857142857142858
 40
0.2857142857142858
 40
0.2857142957142857
 40
0.3571428571428571
 40
0.3571428571428571
 40
0.3571428571428571
 40
0.3571428671428571
 40
0.4285714285714289
 40
0.4285714285714289
 40
0.4285714285714289
 40
0.4285714385714287
 40
0.5
 40
0.5
 40
0.5
 40
0.5000000100000002
 40
0.5714285714285717
 40
0.5714285714285717
 40
0.5714285714285717
 40
0.5714285814285715
 40
0.6428571428571429
 40
0.6428571428571429
 40
0.6428571428571429
 40
0.642857152857143
 40
0.7142857142857145
 40
0.7142857142857145
 40
0.7142857142857145
 40
0.7142857242857144
 40
0.7857142857142857
 40
0.7857142857142857
 40
0.7857142857142857
 40
0.7857142957142857
 40
0.9285714285714286
 40
0.9285714285714286
 40
0.9285714285714286
 40
1.0
 40
1.0
 40
1.0
 40
1.0
 10
29.59095751831597
 20
28.21330433380023
 30
0.0
 10
29.59095751831597
 20
28.21330433380023
 30
0.0
 10
29.59095751831597
 20
28.21330433380023
 30
0.0
 10
30.04909781265105
 20
28.36603292591551
 30
0.0
 10
30.04909781265105
 20
28.36603292591551
 30
0.0
 10
30.04909781265105
 20
28.36603292591551
 30
0.0
 10
30.04909781265105
 20
28.36603292591551
 30
0.0
 10
30.43087381092849
 20
28.28966862985787
 30
0.0
 10
30.43087381092849
 20
28.28966862985787
 30
0.0
 10
30.43087381092849
 20
28.28966862985787
 30
0.0
 10
30.43087381092849
 20
28.28966862985787
 30
0.0
 10
30.43087381092849
 20
28.0605909023552
 30
0.0
 10
30.43087381092849
 20
28.0605909023552
 30
0.0
 10
30.43087381092849
 20
28.0605909023552
 30
0.0
 10
30.43087381092849
 20
28.0605909023552
 30
0.0
 10
29.89636922053577
 20
27.22065944907243
 30
0.0
 10
29.89636922053577
 20
27.22065944907243
 30
0.0
 10
29.89636922053577
 20
27.22065944907243
 30
0.0
 10
29.89636922053577
 20
27.22065944907243
 30
0.0
 10
29.82000492447813
 20
27.06793085695715
 30
0.0
 10
29.82000492447813
 20
27.06793085695715
 30
0.0
 10
29.82000492447813
 20
27.06793085695715
 30
0.0
 10
29.82000492447813
 20
27.06793085695715
 30
0.0
 10
30.04909781265105
 20
26.68615485867971
 30
0.0
 10
30.04909781265105
 20
26.68615485867971
 30
0.0
 10
30.04909781265105
 20
26.68615485867971
 30
0.0
 10
30.04909781265105
 20
26.68615485867971
 30
0.0
 10
30.04909781265105
 20
26.38072799578965
 30
0.0
 10
30.04909781265105
 20
26.38072799578965
 30
0.0
 10
30.04909781265105
 20
26.38072799578965
 30
0.0
 10
30.04909781265105
 20
26.38072799578965
 30
0.0
 10
29.43822892620068
 20
25.92258770145457
 30
0.0
 10
29.43822892620068
 20
25.92258770145457
 30
0.0
 10
29.43822892620068
 20
25.92258770145457
 30
0.0
 10
29.43822892620068
 20
25.92258770145457
 30
0.0
 10
27.68201688424774
 20
24.77721422461149
 30
0.0
 10
27.68201688424774
 20
24.77721422461149
 30
0.0
 10
27.68201688424774
 20
24.77721422461149
 30
0.0
 10
27.68201688424774
 20
24.77721422461149
 30
0.0
 10
27.52928829213246
 20
25.0063071127844
 30
0.0
 10
27.52928829213246
 20
25.0063071127844
 30
0.0
 10
27.52928829213246
 20
25.0063071127844
 30
0.0
 10
27.52928829213246
 20
25.0063071127844
 30
0.0
 10
27.45293915674507
 20
25.6935099739519
 30
0.0
 10
27.45293915674507
 20
25.6935099739519
 30
0.0
 10
27.45293915674507
 20
25.6935099739519
 30
0.0
 10
27.45293915674507
 20
25.6935099739519
 30
0.0
 10
27.52928829213246
 20
27.14429515301479
 30
0.0
 10
27.52928829213246
 20
27.14429515301479
 30
0.0
 10
27.52928829213246
 20
27.14429515301479
 30
0.0
 10
29.59095751831597
 20
28.21330433380023
 30
0.0
 10
29.59095751831597
 20
28.21330433380023
 30
0.0
  0
SPLINE
  5
404
330
1F
100
AcDbEntity
  8
Layer 1
100
AcDbSpline
210
0.0
220
0.0
230
1.0
 70
    11
 71
     3
 72
    48
 73
    44
 74
     0
 42
0.000000001
 43
0.0000000001
 40
0.0
 40
0.0
 40
0.0
 40
0.0
 40
0.00000001
 40
0.0833333333333334
 40
0.0833333333333334
 40
0.0833333333333334
 40
0.0833333433333334
 40
0.1666666666666667
 40
0.1666666666666667
 40
0.1666666666666667
 40
0.1666666766666667
 40
0.25
 40
0.25
 40
0.25
 40
0.25000001
 40
0.3333333333333333
 40
0.3333333333333333
 40
0.3333333333333333
 40
0.3333333433333334
 40
0.4166666666666668
 40
0.4166666666666668
 40
0.4166666666666668
 40
0.4166666766666669
 40
0.5000000000000001
 40
0.5000000000000001
 40
0.5000000000000001
 40
0.5000000100000001
 40
0.5833333333333334
 40
0.5833333333333334
 40
0.5833333333333334
 40
0.5833333433333335
 40
0.6666666666666666
 40
0.6666666666666666
 40
0.6666666666666666
 40
0.6666666766666669
 40
0.7500000000000001
 40
0.7500000000000001
 40
0.7500000000000001
 40
0.7500000100000001
 40
0.9166666666666666
 40
0.9166666666666666
 40
0.9166666666666666
 40
0.9999999999999998
 40
0.9999999999999998
 40
0.9999999999999998
 40
0.9999999999999998
 10
33.56152189655694
 20
29.96951637575318
 30
0.0
 10
33.56152189655694
 20
29.96951637575318
 30
0.0
 10
33.56152189655694
 20
29.96951637575318
 30
0.0
 10
32.11073671749404
 20
28.59509549274792
 30
0.0
 10
32.11073671749404
 20
28.59509549274792
 30
0.0
 10
32.11073671749404
 20
28.59509549274792
 30
0.0
 10
32.11073671749404
 20
28.59509549274792
 30
0.0
 10
32.11073671749404
 20
28.44236690063264
 30
0.0
 10
32.11073671749404
 20
28.44236690063264
 30
0.0
 10
32.11073671749404
 20
28.44236690063264
 30
0.0
 10
32.11073671749404
 20
28.44236690063264
 30
0.0
 10
32.26345014893907
 20
28.44236690063264
 30
0.0
 10
32.26345014893907
 20
28.44236690063264
 30
0.0
 10
32.26345014893907
 20
28.44236690063264
 30
0.0
 10
32.26345014893907
 20
28.44236690063264
 30
0.0
 10
32.56887701182912
 20
28.51873119669029
 30
0.0
 10
32.56887701182912
 20
28.51873119669029
 30
0.0
 10
32.56887701182912
 20
28.51873119669029
 30
0.0
 10
32.56887701182912
 20
28.51873119669029
 30
0.0
 10
32.41617874105435
 20
28.28966862985787
 30
0.0
 10
32.41617874105435
 20
28.28966862985787
 30
0.0
 10
32.41617874105435
 20
28.28966862985787
 30
0.0
 10
32.41617874105435
 20
28.28966862985787
 30
0.0
 10
31.72894555854635
 20
27.75516403946515
 30
0.0
 10
31.72894555854635
 20
27.75516403946515
 30
0.0
 10
31.72894555854635
 20
27.75516403946515
 30
0.0
 10
31.72894555854635
 20
27.75516403946515
 30
0.0
 10
30.88902926593382
 20
27.52607115129223
 30
0.0
 10
30.88902926593382
 20
27.52607115129223
 30
0.0
 10
30.88902926593382
 20
27.52607115129223
 30
0.0
 10
30.88902926593382
 20
27.52607115129223
 30
0.0
 10
30.6599363777609
 20
27.44975233724535
 30
0.0
 10
30.6599363777609
 20
27.44975233724535
 30
0.0
 10
30.6599363777609
 20
27.44975233724535
 30
0.0
 10
30.6599363777609
 20
27.44975233724535
 30
0.0
 10
30.88902926593382
 20
28.13694003774259
 30
0.0
 10
30.88902926593382
 20
28.13694003774259
 30
0.0
 10
30.88902926593382
 20
28.13694003774259
 30
0.0
 10
30.88902926593382
 20
28.13694003774259
 30
0.0
 10
30.88902926593382
 20
28.74780892419295
 30
0.0
 10
30.88902926593382
 20
28.74780892419295
 30
0.0
 10
30.88902926593382
 20
28.74780892419295
 30
0.0
 10
33.56152189655694
 20
29.96951637575318
 30
0.0
 10
33.56152189655694
 20
29.96951637575318
 30
0.0
  0
SPLINE
  5
418
330
1F
100
AcDbEntity
  8
Layer 1
100
AcDbSpline
210
0.0
220
0.0
230
1.0
 70
    11
 71
     3
 72
    84
 73
    80
 74
     0
 42
0.000000001
 43
0.0000000001
 40
0.0
 40
0.0
 40
0.0
 40
0.0
 40
0.00000001
 40
0.0476190476190476
 40
0.0476190476190476
 40
0.0476190476190476
 40
0.0476190576190476
 40
0.0952380952380952
 40
0.0952380952380952
 40
0.0952380952380952
 40
0.0952381052380952
 40
0.1428571428571429
 40
0.1428571428571429
 40
0.1428571428571429
 40
0.1428571528571429
 40
0.1904761904761905
 40
0.1904761904761905
 40
0.1904761904761905
 40
0.1904762004761905
 40
0.2380952380952381
 40
0.2380952380952381
 40
0.2380952380952381
 40
0.2380952480952381
 40
0.2857142857142858
 40
0.2857142857142858
 40
0.2857142857142858
 40
0.2857142957142857
 40
0.3333333333333333
 40
0.3333333333333333
 40
0.3333333333333333
 40
0.3333333433333332
 40
0.3809523809523808
 40
0.3809523809523808
 40
0.3809523809523808
 40
0.3809523909523809
 40
0.4285714285714289
 40
0.4285714285714289
 40
0.4285714285714289
 40
0.4285714385714286
 40
0.4761904761904762
 40
0.4761904761904762
 40
0.4761904761904762
 40
0.4761904861904763
 40
0.5238095238095239
 40
0.5238095238095239
 40
0.5238095238095239
 40
0.5238095338095239
 40
0.5714285714285714
 40
0.5714285714285714
 40
0.5714285714285714
 40
0.5714285814285716
 40
0.6190476190476191
 40
0.6190476190476191
 40
0.6190476190476191
 40
0.619047629047619
 40
0.6666666666666666
 40
0.6666666666666666
 40
0.6666666666666666
 40
0.6666666766666666
 40
0.7142857142857145
 40
0.7142857142857145
 40
0.7142857142857145
 40
0.7142857242857144
 40
0.7619047619047619
 40
0.7619047619047619
 40
0.7619047619047619
 40
0.7619047719047623
 40
0.8095238095238094
 40
0.8095238095238094
 40
0.8095238095238094
 40
0.8095238195238094
 40
0.8571428571428571
 40
0.8571428571428571
 40
0.8571428571428571
 40
0.857142867142857
 40
0.9523809523809523
 40
0.9523809523809523
 40
0.9523809523809523
 40
0.9999999999999998
 40
0.9999999999999998
 40
0.9999999999999998
 40
0.9999999999999998
 10
24.55138395928956
 20
21.57021700359566
 30
0.0
 10
24.55138395928956
 20
21.57021700359566
 30
0.0
 10
24.55138395928956
 20
21.57021700359566
 30
0.0
 10
25.6203628187345
 20
22.6392261843811
 30
0.0
 10
25.6203628187345
 20
22.6392261843811
 30
0.0
 10
25.6203628187345
 20
22.6392261843811
 30
0.0
 10
25.6203628187345
 20
22.6392261843811
 30
0.0
 10
26.00216913835244
 20
20.5775872795381
 30
0.0
 10
26.00216913835244
 20
20.5775872795381
 30
0.0
 10
26.00216913835244
 20
20.5775872795381
 30
0.0
 10
26.00216913835244
 20
20.5775872795381
 30
0.0
 10
25.84944054623716
 20
20.2721452559778
 30
0.0
 10
25.84944054623716
 20
20.2721452559778
 30
0.0
 10
25.84944054623716
 20
20.2721452559778
 30
0.0
 10
25.84944054623716
 20
20.2721452559778
 30
0.0
 10
25.39130025190209
 20
19.73764066558508
 30
0.0
 10
25.39130025190209
 20
19.73764066558508
 30
0.0
 10
25.39130025190209
 20
19.73764066558508
 30
0.0
 10
25.39130025190209
 20
19.73764066558508
 30
0.0
 10
24.16959280034186
 20
18.66866180614014
 30
0.0
 10
24.16959280034186
 20
18.66866180614014
 30
0.0
 10
24.16959280034186
 20
18.66866180614014
 30
0.0
 10
24.16959280034186
 20
18.66866180614014
 30
0.0
 10
24.01687936889683
 20
18.51593321402486
 30
0.0
 10
24.01687936889683
 20
18.51593321402486
 30
0.0
 10
24.01687936889683
 20
18.51593321402486
 30
0.0
 10
24.01687936889683
 20
18.51593321402486
 30
0.0
 10
24.32229107111664
 20
18.51593321402486
 30
0.0
 10
24.32229107111664
 20
18.51593321402486
 30
0.0
 10
24.32229107111664
 20
18.51593321402486
 30
0.0
 10
24.32229107111664
 20
18.51593321402486
 30
0.0
 10
25.31493595584445
 20
18.74502610219778
 30
0.0
 10
25.31493595584445
 20
18.74502610219778
 30
0.0
 10
25.31493595584445
 20
18.74502610219778
 30
0.0
 10
25.31493595584445
 20
18.74502610219778
 30
0.0
 10
26.3075960012425
 20
19.27950037124999
 30
0.0
 10
26.3075960012425
 20
19.27950037124999
 30
0.0
 10
26.3075960012425
 20
19.27950037124999
 30
0.0
 10
26.3075960012425
 20
19.27950037124999
 30
0.0
 10
27.60565258819009
 20
20.11944698520302
 30
0.0
 10
27.60565258819009
 20
20.11944698520302
 30
0.0
 10
27.60565258819009
 20
20.11944698520302
 30
0.0
 10
27.60565258819009
 20
20.11944698520302
 30
0.0
 10
27.68201688424774
 20
20.04308268914538
 30
0.0
 10
27.68201688424774
 20
20.04308268914538
 30
0.0
 10
27.68201688424774
 20
20.04308268914538
 30
0.0
 10
27.68201688424774
 20
20.04308268914538
 30
0.0
 10
27.68201688424774
 20
19.89036925770036
 30
0.0
 10
27.68201688424774
 20
19.89036925770036
 30
0.0
 10
27.68201688424774
 20
19.89036925770036
 30
0.0
 10
27.68201688424774
 20
19.89036925770036
 30
0.0
 10
27.07114799779738
 20
18.51593321402486
 30
0.0
 10
27.07114799779738
 20
18.51593321402486
 30
0.0
 10
27.07114799779738
 20
18.51593321402486
 30
0.0
 10
27.07114799779738
 20
18.51593321402486
 30
0.0
 10
26.68937199951994
 20
17.98142862363214
 30
0.0
 10
26.68937199951994
 20
17.98142862363214
 30
0.0
 10
26.68937199951994
 20
17.98142862363214
 30
0.0
 10
26.68937199951994
 20
17.98142862363214
 30
0.0
 10
25.39130025190209
 20
17.06514803496197
 30
0.0
 10
25.39130025190209
 20
17.06514803496197
 30
0.0
 10
25.39130025190209
 20
17.06514803496197
 30
0.0
 10
25.39130025190209
 20
17.06514803496197
 30
0.0
 10
24.78043136545172
 20
16.9124497641872
 30
0.0
 10
24.78043136545172
 20
16.9124497641872
 30
0.0
 10
24.78043136545172
 20
16.9124497641872
 30
0.0
 10
24.78043136545172
 20
16.9124497641872
 30
0.0
 10
22.71880762127898
 20
16.60699257995664
 30
0.0
 10
22.71880762127898
 20
16.60699257995664
 30
0.0
 10
22.71880762127898
 20
16.60699257995664
 30
0.0
 10
22.71880762127898
 20
16.60699257995664
 30
0.0
 10
22.48971473310606
 20
17.14149717034936
 30
0.0
 10
22.48971473310606
 20
17.14149717034936
 30
0.0
 10
22.48971473310606
 20
17.14149717034936
 30
0.0
 10
22.48971473310606
 20
17.14149717034936
 30
0.0
 10
22.10793873482861
 20
18.05779291968978
 30
0.0
 10
22.10793873482861
 20
18.05779291968978
 30
0.0
 10
22.10793873482861
 20
18.05779291968978
 30
0.0
 10
24.55138395928956
 20
21.57021700359566
 30
0.0
 10
24.55138395928956
 20
21.57021700359566
 30
0.0
  0
SPLINE
  5
423
330
1F
100
AcDbEntity
  8
Layer 1
100
AcDbSpline
210
0.0
220
0.0
230
1.0
 70
    11
 71
     3
 72
    48
 73
    44
 74
     0
 42
0.000000001
 43
0.0000000001
 40
0.0
 40
0.0
 40
0.0
 40
0.0
 40
0.00000001
 40
0.0833333333333334
 40
0.0833333333333334
 40
0.0833333333333334
 40
0.0833333433333334
 40
0.1666666666666667
 40
0.1666666666666667
 40
0.1666666666666667
 40
0.1666666766666667
 40
0.25
 40
0.25
 40
0.25
 40
0.25000001
 40
0.3333333333333333
 40
0.3333333333333333
 40
0.3333333333333333
 40
0.3333333433333334
 40
0.4166666666666668
 40
0.4166666666666668
 40
0.4166666666666668
 40
0.4166666766666669
 40
0.5000000000000001
 40
0.5000000000000001
 40
0.5000000000000001
 40
0.5000000100000001
 40
0.5833333333333334
 40
0.5833333333333334
 40
0.5833333333333334
 40
0.5833333433333335
 40
0.6666666666666666
 40
0.6666666666666666
 40
0.6666666666666666
 40
0.6666666766666669
 40
0.7500000000000001
 40
0.7500000000000001
 40
0.7500000000000001
 40
0.7500000100000001
 40
0.9166666666666666
 40
0.9166666666666666
 40
0.9166666666666666
 40
0.9999999999999998
 40
0.9999999999999998
 40
0.9999999999999998
 40
0.9999999999999998
 10
27.14751229385502
 20
23.70823536516655
 30
0.0
 10
27.14751229385502
 20
23.70823536516655
 30
0.0
 10
27.14751229385502
 20
23.70823536516655
 30
0.0
 10
29.74365578909074
 20
25.46444740711948
 30
0.0
 10
29.74365578909074
 20
25.46444740711948
 30
0.0
 10
29.74365578909074
 20
25.46444740711948
 30
0.0
 10
29.74365578909074
 20
25.46444740711948
 30
0.0
 10
29.97273351659341
 20
25.46444740711948
 30
0.0
 10
29.97273351659341
 20
25.46444740711948
 30
0.0
 10
29.97273351659341
 20
25.46444740711948
 30
0.0
 10
29.97273351659341
 20
25.46444740711948
 30
0.0
 10
30.04909781265105
 20
25.23535451894657
 30
0.0
 10
30.04909781265105
 20
25.23535451894657
 30
0.0
 10
30.04909781265105
 20
25.23535451894657
 30
0.0
 10
30.04909781265105
 20
25.23535451894657
 30
0.0
 10
29.59095751831597
 20
23.55550677305127
 30
0.0
 10
29.59095751831597
 20
23.55550677305127
 30
0.0
 10
29.59095751831597
 20
23.55550677305127
 30
0.0
 10
29.59095751831597
 20
23.55550677305127
 30
0.0
 10
29.89636922053577
 20
23.40279334160624
 30
0.0
 10
29.89636922053577
 20
23.40279334160624
 30
0.0
 10
29.89636922053577
 20
23.40279334160624
 30
0.0
 10
29.89636922053577
 20
23.40279334160624
 30
0.0
 10
29.97273351659341
 20
23.25009507083146
 30
0.0
 10
29.97273351659341
 20
23.25009507083146
 30
0.0
 10
29.97273351659341
 20
23.25009507083146
 30
0.0
 10
29.97273351659341
 20
23.25009507083146
 30
0.0
 10
29.97273351659341
 20
22.86830391188377
 30
0.0
 10
29.97273351659341
 20
22.86830391188377
 30
0.0
 10
29.97273351659341
 20
22.86830391188377
 30
0.0
 10
29.97273351659341
 20
22.86830391188377
 30
0.0
 10
29.59095751831597
 20
22.41016361754869
 30
0.0
 10
29.59095751831597
 20
22.41016361754869
 30
0.0
 10
29.59095751831597
 20
22.41016361754869
 30
0.0
 10
29.59095751831597
 20
22.41016361754869
 30
0.0
 10
26.3075960012425
 20
20.04308268914538
 30
0.0
 10
26.3075960012425
 20
20.04308268914538
 30
0.0
 10
26.3075960012425
 20
20.04308268914538
 30
0.0
 10
26.3075960012425
 20
20.04308268914538
 30
0.0
 10
26.07850311306958
 20
22.6392261843811
 30
0.0
 10
26.07850311306958
 20
22.6392261843811
 30
0.0
 10
26.07850311306958
 20
22.6392261843811
 30
0.0
 10
27.14751229385502
 20
23.70823536516655
 30
0.0
 10
27.14751229385502
 20
23.70823536516655
 30
0.0
  0
SPLINE
  5
43F
330
1F
100
AcDbEntity
  8
Layer 1
100
AcDbSpline
210
0.0
220
0.0
230
1.0
 70
    11
 71
     3
 72
   116
 73
   112
 74
     0
 42
0.000000001
 43
0.0000000001
 40
0.0
 40
0.0
 40
0.0
 40
0.0
 40
0.00000001
 40
0.032258064516129
 40
0.032258064516129
 40
0.032258064516129
 40
0.032258074516129
 40
0.064516129032258
 40
0.064516129032258
 40
0.064516129032258
 40
0.064516139032258
 40
0.0967741935483871
 40
0.0967741935483871
 40
0.0967741935483871
 40
0.0967742035483871
 40
0.1290322580645161
 40
0.1290322580645161
 40
0.1290322580645161
 40
0.1290322680645161
 40
0.1612903225806451
 40
0.1612903225806451
 40
0.1612903225806451
 40
0.1612903325806451
 40
0.1935483870967742
 40
0.1935483870967742
 40
0.1935483870967742
 40
0.1935483970967742
 40
0.2258064516129032
 40
0.2258064516129032
 40
0.2258064516129032
 40
0.2258064616129031
 40
0.2580645161290322
 40
0.2580645161290322
 40
0.2580645161290322
 40
0.2580645261290321
 40
0.2903225806451612
 40
0.2903225806451612
 40
0.2903225806451612
 40
0.2903225906451613
 40
0.3225806451612903
 40
0.3225806451612903
 40
0.3225806451612903
 40
0.3225806551612903
 40
0.3548387096774193
 40
0.3548387096774193
 40
0.3548387096774193
 40
0.3548387196774193
 40
0.3870967741935484
 40
0.3870967741935484
 40
0.3870967741935484
 40
0.3870967841935484
 40
0.4193548387096774
 40
0.4193548387096774
 40
0.4193548387096774
 40
0.4193548487096776
 40
0.4516129032258064
 40
0.4516129032258064
 40
0.4516129032258064
 40
0.4516129132258067
 40
0.4838709677419354
 40
0.4838709677419354
 40
0.4838709677419354
 40
0.4838709777419357
 40
0.5161290322580645
 40
0.5161290322580645
 40
0.5161290322580645
 40
0.5161290422580646
 40
0.5483870967741935
 40
0.5483870967741935
 40
0.5483870967741935
 40
0.5483871067741936
 40
0.5806451612903225
 40
0.5806451612903225
 40
0.5806451612903225
 40
0.5806451712903226
 40
0.6129032258064519
 40
0.6129032258064519
 40
0.6129032258064519
 40
0.6129032358064518
 40
0.6451612903225809
 40
0.6451612903225809
 40
0.6451612903225809
 40
0.6451613003225808
 40
0.6774193548387099
 40
0.6774193548387099
 40
0.6774193548387099
 40
0.6774193648387099
 40
0.7096774193548388
 40
0.7096774193548388
 40
0.7096774193548388
 40
0.7096774293548389
 40
0.7419354838709678
 40
0.7419354838709678
 40
0.7419354838709678
 40
0.7419354938709679
 40
0.7741935483870968
 40
0.7741935483870968
 40
0.7741935483870968
 40
0.7741935583870971
 40
0.8064516129032258
 40
0.8064516129032258
 40
0.8064516129032258
 40
0.8064516229032257
 40
0.8387096774193548
 40
0.8387096774193548
 40
0.8387096774193548
 40
0.8387096874193549
 40
0.9032258064516128
 40
0.9032258064516128
 40
0.9032258064516128
 40
0.9354838709677418
 40
0.9354838709677418
 40
0.9354838709677418
 40
0.9354838709677418
 10
20.50445528499096
 20
18.82136007691491
 30
0.0
 10
20.50445528499096
 20
18.82136007691491
 30
0.0
 10
20.50445528499096
 20
18.82136007691491
 30
0.0
 10
20.65713839509548
 20
18.74502610219778
 30
0.0
 10
20.65713839509548
 20
18.74502610219778
 30
0.0
 10
20.65713839509548
 20
18.74502610219778
 30
0.0
 10
20.65713839509548
 20
18.74502610219778
 30
0.0
 10
20.73350269115312
 20
18.66866180614014
 30
0.0
 10
20.73350269115312
 20
18.66866180614014
 30
0.0
 10
20.73350269115312
 20
18.66866180614014
 30
0.0
 10
20.73350269115312
 20
18.66866180614014
 30
0.0
 10
20.8862312832684
 20
18.51593321402486
 30
0.0
 10
20.8862312832684
 20
18.51593321402486
 30
0.0
 10
20.8862312832684
 20
18.51593321402486
 30
0.0
 10
20.8862312832684
 20
18.51593321402486
 30
0.0
 10
21.03892955404317
 20
18.36320462190958
 30
0.0
 10
21.03892955404317
 20
18.36320462190958
 30
0.0
 10
21.03892955404317
 20
18.36320462190958
 30
0.0
 10
21.03892955404317
 20
18.36320462190958
 30
0.0
 10
21.1916429854882
 20
18.05779291968978
 30
0.0
 10
21.1916429854882
 20
18.05779291968978
 30
0.0
 10
21.1916429854882
 20
18.05779291968978
 30
0.0
 10
21.1916429854882
 20
18.05779291968978
 30
0.0
 10
21.49706984837825
 20
17.44692403323941
 30
0.0
 10
21.49706984837825
 20
17.44692403323941
 30
0.0
 10
21.49706984837825
 20
17.44692403323941
 30
0.0
 10
21.49706984837825
 20
17.44692403323941
 30
0.0
 10
21.64979844049353
 20
17.06514803496197
 30
0.0
 10
21.64979844049353
 20
17.06514803496197
 30
0.0
 10
21.64979844049353
 20
17.06514803496197
 30
0.0
 10
21.64979844049353
 20
17.06514803496197
 30
0.0
 10
21.72616273655117
 20
16.83608546812956
 30
0.0
 10
21.72616273655117
 20
16.83608546812956
 30
0.0
 10
21.72616273655117
 20
16.83608546812956
 30
0.0
 10
21.72616273655117
 20
16.83608546812956
 30
0.0
 10
21.80251187193856
 20
16.53064344456925
 30
0.0
 10
21.80251187193856
 20
16.53064344456925
 30
0.0
 10
21.80251187193856
 20
16.53064344456925
 30
0.0
 10
21.80251187193856
 20
16.53064344456925
 30
0.0
 10
21.8788761679962
 20
16.30158087773684
 30
0.0
 10
21.8788761679962
 20
16.30158087773684
 30
0.0
 10
21.8788761679962
 20
16.30158087773684
 30
0.0
 10
21.8788761679962
 20
16.30158087773684
 30
0.0
 10
21.8788761679962
 20
16.14885228562156
 30
0.0
 10
21.8788761679962
 20
16.14885228562156
 30
0.0
 10
21.8788761679962
 20
16.14885228562156
 30
0.0
 10
21.8788761679962
 20
16.14885228562156
 30
0.0
 10
20.50445528499096
 20
15.84344058340175
 30
0.0
 10
20.50445528499096
 20
15.84344058340175
 30
0.0
 10
20.50445528499096
 20
15.84344058340175
 30
0.0
 10
20.50445528499096
 20
15.84344058340175
 30
0.0
 10
20.50445528499096
 20
15.91980487945939
 30
0.0
 10
20.50445528499096
 20
15.91980487945939
 30
0.0
 10
20.50445528499096
 20
15.91980487945939
 30
0.0
 10
20.50445528499096
 20
15.91980487945939
 30
0.0
 10
20.50445528499096
 20
15.99615401484678
 30
0.0
 10
20.50445528499096
 20
15.99615401484678
 30
0.0
 10
20.50445528499096
 20
15.99615401484678
 30
0.0
 10
20.50445528499096
 20
15.99615401484678
 30
0.0
 10
20.50445528499096
 20
16.14885228562156
 30
0.0
 10
20.50445528499096
 20
16.14885228562156
 30
0.0
 10
20.50445528499096
 20
16.14885228562156
 30
0.0
 10
20.50445528499096
 20
16.14885228562156
 30
0.0
 10
20.50445528499096
 20
16.30158087773684
 30
0.0
 10
20.50445528499096
 20
16.30158087773684
 30
0.0
 10
20.50445528499096
 20
16.30158087773684
 30
0.0
 10
20.50445528499096
 20
16.30158087773684
 30
0.0
 10
20.4280909889333
 20
16.45430946985212
 30
0.0
 10
20.4280909889333
 20
16.45430946985212
 30
0.0
 10
20.4280909889333
 20
16.45430946985212
 30
0.0
 10
20.4280909889333
 20
16.45430946985212
 30
0.0
 10
20.35172669287568
 20
16.68335687601428
 30
0.0
 10
20.35172669287568
 20
16.68335687601428
 30
0.0
 10
20.35172669287568
 20
16.68335687601428
 30
0.0
 10
20.35172669287568
 20
16.68335687601428
 30
0.0
 10
20.27536239681804
 20
16.98878373890433
 30
0.0
 10
20.27536239681804
 20
16.98878373890433
 30
0.0
 10
20.27536239681804
 20
16.98878373890433
 30
0.0
 10
20.27536239681804
 20
16.98878373890433
 30
0.0
 10
20.1989981007604
 20
17.217861466407
 30
0.0
 10
20.1989981007604
 20
17.217861466407
 30
0.0
 10
20.1989981007604
 20
17.217861466407
 30
0.0
 10
20.1989981007604
 20
17.217861466407
 30
0.0
 10
20.12266412604326
 20
17.5996526253547
 30
0.0
 10
20.12266412604326
 20
17.5996526253547
 30
0.0
 10
20.12266412604326
 20
17.5996526253547
 30
0.0
 10
20.12266412604326
 20
17.5996526253547
 30
0.0
 10
20.12266412604326
 20
17.9050643275745
 30
0.0
 10
20.12266412604326
 20
17.9050643275745
 30
0.0
 10
20.12266412604326
 20
17.9050643275745
 30
0.0
 10
20.12266412604326
 20
17.9050643275745
 30
0.0
 10
20.1989981007604
 20
18.13415721574742
 30
0.0
 10
20.1989981007604
 20
18.13415721574742
 30
0.0
 10
20.1989981007604
 20
18.13415721574742
 30
0.0
 10
20.1989981007604
 20
18.13415721574742
 30
0.0
 10
20.27536239681804
 20
18.43956891796722
 30
0.0
 10
20.27536239681804
 20
18.43956891796722
 30
0.0
 10
20.27536239681804
 20
18.43956891796722
 30
0.0
 10
20.27536239681804
 20
18.43956891796722
 30
0.0
 10
20.35172669287568
 20
18.66866180614014
 30
0.0
 10
20.35172669287568
 20
18.66866180614014
 30
0.0
 10
20.35172669287568
 20
18.66866180614014
 30
0.0
 10
20.35172669287568
 20
18.66866180614014
 30
0.0
 10
20.35172669287568
 20
18.74502610219778
 30
0.0
 10
20.35172669287568
 20
18.74502610219778
 30
0.0
 10
20.35172669287568
 20
18.74502610219778
 30
0.0
 10
20.35172669287568
 20
18.74502610219778
 30
0.0
 10
20.4280909889333
 20
18.82136007691491
 30
0.0
 10
20.4280909889333
 20
18.82136007691491
 30
0.0
 10
20.4280909889333
 20
18.82136007691491
 30
0.0
 10
20.50445528499096
 20
18.82136007691491
 30
0.0
 10
20.50445528499096
 20
18.82136007691491
 30
0.0
  0
SPLINE
  5
45A
330
1F
100
AcDbEntity
  8
Layer 1
100
AcDbSpline
210
0.0
220
0.0
230
1.0
 70
    11
 71
     3
 72
   112
 73
   108
 74
     0
 42
0.000000001
 43
0.0000000001
 40
0.0
 40
0.0
 40
0.0
 40
0.0
 40
0.00000001
 40
0.0357142857142857
 40
0.0357142857142857
 40
0.0357142857142857
 40
0.0357142957142857
 40
0.0714285714285714
 40
0.0714285714285714
 40
0.0714285714285714
 40
0.0714285814285714
 40
0.1071428571428571
 40
0.1071428571428571
 40
0.1071428571428571
 40
0.1071428671428571
 40
0.1428571428571429
 40
0.1428571428571429
 40
0.1428571428571429
 40
0.1428571528571429
 40
0.1785714285714286
 40
0.1785714285714286
 40
0.1785714285714286
 40
0.1785714385714286
 40
0.2142857142857143
 40
0.2142857142857143
 40
0.2142857142857143
 40
0.2142857242857143
 40
0.25
 40
0.25
 40
0.25
 40
0.25000001
 40
0.2857142857142858
 40
0.2857142857142858
 40
0.2857142857142858
 40
0.2857142957142859
 40
0.3214285714285715
 40
0.3214285714285715
 40
0.3214285714285715
 40
0.3214285814285716
 40
0.3571428571428571
 40
0.3571428571428571
 40
0.3571428571428571
 40
0.3571428671428571
 40
0.3928571428571428
 40
0.3928571428571428
 40
0.3928571428571428
 40
0.3928571528571428
 40
0.4285714285714289
 40
0.4285714285714289
 40
0.4285714285714289
 40
0.4285714385714287
 40
0.4642857142857145
 40
0.4642857142857145
 40
0.4642857142857145
 40
0.4642857242857146
 40
0.5
 40
0.5
 40
0.5
 40
0.5000000100000001
 40
0.5357142857142858
 40
0.5357142857142858
 40
0.5357142857142858
 40
0.5357142957142857
 40
0.5714285714285713
 40
0.5714285714285713
 40
0.5714285714285713
 40
0.5714285814285715
 40
0.6071428571428572
 40
0.6071428571428572
 40
0.6071428571428572
 40
0.6071428671428573
 40
0.6428571428571433
 40
0.6428571428571433
 40
0.6428571428571433
 40
0.642857152857143
 40
0.6785714285714285
 40
0.6785714285714285
 40
0.6785714285714285
 40
0.6785714385714287
 40
0.7142857142857145
 40
0.7142857142857145
 40
0.7142857142857145
 40
0.7142857242857144
 40
0.75
 40
0.75
 40
0.75
 40
0.7500000100000001
 40
0.7857142857142858
 40
0.7857142857142858
 40
0.7857142857142858
 40
0.7857142957142857
 40
0.8214285714285713
 40
0.8214285714285713
 40
0.8214285714285713
 40
0.8214285814285714
 40
0.8571428571428571
 40
0.8571428571428571
 40
0.8571428571428571
 40
0.857142867142857
 40
0.892857142857143
 40
0.892857142857143
 40
0.892857142857143
 40
0.8928571528571429
 40
0.9642857142857142
 40
0.9642857142857142
 40
0.9642857142857142
 40
1.0
 40
1.0
 40
1.0
 40
1.0
 10
23.10058361955642
 20
15.00350913011899
 30
0.0
 10
23.10058361955642
 20
15.00350913011899
 30
0.0
 10
23.10058361955642
 20
15.00350913011899
 30
0.0
 10
23.71145250600678
 20
14.69809742789918
 30
0.0
 10
23.71145250600678
 20
14.69809742789918
 30
0.0
 10
23.71145250600678
 20
14.69809742789918
 30
0.0
 10
23.71145250600678
 20
14.69809742789918
 30
0.0
 10
25.16222252439941
 20
13.70543738250113
 30
0.0
 10
25.16222252439941
 20
13.70543738250113
 30
0.0
 10
25.16222252439941
 20
13.70543738250113
 30
0.0
 10
25.16222252439941
 20
13.70543738250113
 30
0.0
 10
25.2385716597868
 20
13.5527239510561
 30
0.0
 10
25.2385716597868
 20
13.5527239510561
 30
0.0
 10
25.2385716597868
 20
13.5527239510561
 30
0.0
 10
25.2385716597868
 20
13.5527239510561
 30
0.0
 10
25.08588854968229
 20
13.1709327921084
 30
0.0
 10
25.08588854968229
 20
13.1709327921084
 30
0.0
 10
25.08588854968229
 20
13.1709327921084
 30
0.0
 10
25.08588854968229
 20
13.1709327921084
 30
0.0
 10
24.78043136545172
 20
12.8655210898886
 30
0.0
 10
24.78043136545172
 20
12.8655210898886
 30
0.0
 10
24.78043136545172
 20
12.8655210898886
 30
0.0
 10
24.78043136545172
 20
12.8655210898886
 30
0.0
 10
24.39865536717428
 20
12.48371477027065
 30
0.0
 10
24.39865536717428
 20
12.48371477027065
 30
0.0
 10
24.39865536717428
 20
12.48371477027065
 30
0.0
 10
24.39865536717428
 20
12.48371477027065
 30
0.0
 10
24.32229107111664
 20
12.1782879073806
 30
0.0
 10
24.32229107111664
 20
12.1782879073806
 30
0.0
 10
24.32229107111664
 20
12.1782879073806
 30
0.0
 10
24.32229107111664
 20
12.1782879073806
 30
0.0
 10
24.70406706939408
 20
11.1856430226528
 30
0.0
 10
24.70406706939408
 20
11.1856430226528
 30
0.0
 10
24.70406706939408
 20
11.1856430226528
 30
0.0
 10
24.70406706939408
 20
11.1856430226528
 30
0.0
 10
24.70406706939408
 20
11.03294475187801
 30
0.0
 10
24.70406706939408
 20
11.03294475187801
 30
0.0
 10
24.70406706939408
 20
11.03294475187801
 30
0.0
 10
24.70406706939408
 20
11.03294475187801
 30
0.0
 10
24.55138395928956
 20
10.88021615976274
 30
0.0
 10
24.55138395928956
 20
10.88021615976274
 30
0.0
 10
24.55138395928956
 20
10.88021615976274
 30
0.0
 10
24.55138395928956
 20
10.88021615976274
 30
0.0
 10
24.16959280034186
 20
10.65113843226008
 30
0.0
 10
24.16959280034186
 20
10.65113843226008
 30
0.0
 10
24.16959280034186
 20
10.65113843226008
 30
0.0
 10
24.16959280034186
 20
10.65113843226008
 30
0.0
 10
23.40601048244648
 20
10.42207586542766
 30
0.0
 10
23.40601048244648
 20
10.42207586542766
 30
0.0
 10
23.40601048244648
 20
10.42207586542766
 30
0.0
 10
23.40601048244648
 20
10.42207586542766
 30
0.0
 10
23.2533122116717
 20
10.11666416320786
 30
0.0
 10
23.2533122116717
 20
10.11666416320786
 30
0.0
 10
23.2533122116717
 20
10.11666416320786
 30
0.0
 10
23.2533122116717
 20
10.11666416320786
 30
0.0
 10
23.2533122116717
 20
9.124004117809803
 30
0.0
 10
23.2533122116717
 20
9.124004117809803
 30
0.0
 10
23.2533122116717
 20
9.124004117809803
 30
0.0
 10
23.2533122116717
 20
9.124004117809803
 30
0.0
 10
23.10058361955642
 20
8.742228119532361
 30
0.0
 10
23.10058361955642
 20
8.742228119532361
 30
0.0
 10
23.10058361955642
 20
8.742228119532361
 30
0.0
 10
23.10058361955642
 20
8.742228119532361
 30
0.0
 10
22.87150589205375
 20
8.513135231359441
 30
0.0
 10
22.87150589205375
 20
8.513135231359441
 30
0.0
 10
22.87150589205375
 20
8.513135231359441
 30
0.0
 10
22.87150589205375
 20
8.513135231359441
 30
0.0
 10
22.03157443877097
 20
8.436786095972056
 30
0.0
 10
22.03157443877097
 20
8.436786095972056
 30
0.0
 10
22.03157443877097
 20
8.436786095972056
 30
0.0
 10
22.03157443877097
 20
8.436786095972056
 30
0.0
 10
21.49706984837825
 20
7.978630640966723
 30
0.0
 10
21.49706984837825
 20
7.978630640966723
 30
0.0
 10
21.49706984837825
 20
7.978630640966723
 30
0.0
 10
21.49706984837825
 20
7.978630640966723
 30
0.0
 10
21.03892955404317
 20
7.367792075856863
 30
0.0
 10
21.03892955404317
 20
7.367792075856863
 30
0.0
 10
21.03892955404317
 20
7.367792075856863
 30
0.0
 10
21.03892955404317
 20
7.367792075856863
 30
0.0
 10
20.8862312832684
 20
7.367792075856863
 30
0.0
 10
20.8862312832684
 20
7.367792075856863
 30
0.0
 10
20.8862312832684
 20
7.367792075856863
 30
0.0
 10
20.8862312832684
 20
7.367792075856863
 30
0.0
 10
19.96995069459823
 20
7.825947530862197
 30
0.0
 10
19.96995069459823
 20
7.825947530862197
 30
0.0
 10
19.96995069459823
 20
7.825947530862197
 30
0.0
 10
19.96995069459823
 20
7.825947530862197
 30
0.0
 10
20.65713839509548
 20
13.39999535894082
 30
0.0
 10
20.65713839509548
 20
13.39999535894082
 30
0.0
 10
20.65713839509548
 20
13.39999535894082
 30
0.0
 10
20.65713839509548
 20
13.39999535894082
 30
0.0
 10
20.65713839509548
 20
14.39264024366863
 30
0.0
 10
20.65713839509548
 20
14.39264024366863
 30
0.0
 10
20.65713839509548
 20
14.39264024366863
 30
0.0
 10
20.65713839509548
 20
14.39264024366863
 30
0.0
 10
20.73350269115312
 20
14.62173313184154
 30
0.0
 10
20.73350269115312
 20
14.62173313184154
 30
0.0
 10
20.73350269115312
 20
14.62173313184154
 30
0.0
 10
20.73350269115312
 20
14.62173313184154
 30
0.0
 10
21.03892955404317
 20
14.85078053800371
 30
0.0
 10
21.03892955404317
 20
14.85078053800371
 30
0.0
 10
21.03892955404317
 20
14.85078053800371
 30
0.0
 10
21.03892955404317
 20
14.85078053800371
 30
0.0
 10
22.10793873482861
 20
15.23257169695139
 30
0.0
 10
22.10793873482861
 20
15.23257169695139
 30
0.0
 10
22.10793873482861
 20
15.23257169695139
 30
0.0
 10
23.10058361955642
 20
15.00350913011899
 30
0.0
 10
23.10058361955642
 20
15.00350913011899
 30
0.0
  0
CIRCLE
  5
45B
330
1F
100
AcDbEntity
  8
0
100
AcDbCircle
 10
34.63053107734237
 20
30.4658463984522
 30
0.0
 40
0.4722411254887516
  0
CIRCLE
  5
45C
330
1F
100
AcDbEntity
  8
0
100
AcDbCircle
 10
33.8287791074158
 20
28.82415539490774
 30
0.0
 40
0.4129617686665963
  0
CIRCLE
  5
45D
330
1F
100
AcDbEntity
  8
0
100
AcDbCircle
 10
32.72159802360928
 20
26.95340715387607
 30
0.0
 40
0.4722448026524306
  0
CIRCLE
  5
45E
330
1F
100
AcDbEntity
  8
0
100
AcDbCircle
 10
32.22527558124538
 20
25.0063071127844
 30
0.0
 40
0.3760159118291597
  0
CIRCLE
  5
45F
330
1F
100
AcDbEntity
  8
0
100
AcDbCircle
 10
31.34716956026891
 20
22.56287704899372
 30
0.0
 40
0.6296683163196475
  0
CIRCLE
  5
460
330
1F
100
AcDbEntity
  8
0
100
AcDbCircle
 10
30.16362909606725
 20
20.65394399526062
 30
0.0
 40
0.4468743173824029
  0
CIRCLE
  5
461
330
1F
100
AcDbEntity
  8
0
100
AcDbCircle
 10
29.07553083970571
 20
19.20315236148984
 30
0.0
 40
0.4186548943088432
  0
CIRCLE
  5
462
330
1F
100
AcDbEntity
  8
0
100
AcDbCircle
 10
27.60565258819009
 20
17.42784811989526
 30
0.0
 40
0.3935387449214185
  0
ENDSEC
  0
SECTION
  2
OBJECTS
  0
DICTIONARY
  5
C
330
0
100
AcDbDictionary
281
     1
  3
ACAD_CIP_PREVIOUS_PRODUCT_INFO
350
D6
  3
ACAD_COLOR
350
D1
  3
ACAD_DETAILVIEWSTYLE
350
CD
  3
ACAD_GROUP
350
D
  3
ACAD_LAYOUT
350
1A
  3
ACAD_MATERIAL
350
43
  3
ACAD_MLEADERSTYLE
350
6B
  3
ACAD_MLINESTYLE
350
17
  3
ACAD_PLOTSETTINGS
350
19
  3
ACAD_PLOTSTYLENAME
350
E
  3
ACAD_SCALELIST
350
47
  3
ACAD_SECTIONVIEWSTYLE
350
CE
  3
ACAD_TABLESTYLE
350
69
  3
ACAD_VISUALSTYLE
350
2A
  3
ACDB_RECOMPOSE_DATA
350
484
  3
AcDbVariableDictionary
350
92
  0
SUN
  5
6D
330
29
100
AcDbSun
 90
        1
290
     1
 63
     7
421
 16777215
 40
1.0
291
     1
 91
  2455826
 92
 54000000
292
     0
 70
     0
 71
   256
280
     1
  0
DICTIONARY
  5
463
330
10
100
AcDbDictionary
280
     1
281
     1
  3
ADSK_XREC_LAYER_RECONCILED
360
464
  0
DICTIONARY
  5
465
330
6F
100
AcDbDictionary
280
     1
281
     1
  3
ADSK_XREC_LAYER_RECONCILED
360
466
  0
DICTIONARY
  5
FF
330
1F
100
AcDbDictionary
280
     1
281
     1
  3
ACAD_SORTENTS
360
100
  0
XRECORD
  5
D6
102
{ACAD_REACTORS
330
C
102
}
330
C
100
AcDbXrecord
280
     1
300
ACD
300
2016
300
DSADV_F_S
  0
DICTIONARY
  5
D1
102
{ACAD_REACTORS
330
C
102
}
330
C
100
AcDbDictionary
281
     1
  0
DICTIONARY
  5
CD
102
{ACAD_REACTORS
330
C
102
}
330
C
100
AcDbDictionary
281
     1
  3
Imperial24
350
D3
  0
DICTIONARY
  5
D
102
{ACAD_REACTORS
330
C
102
}
330
C
100
AcDbDictionary
281
     1
  0
DICTIONARY
  5
1A
102
{ACAD_REACTORS
330
C
102
}
330
C
100
AcDbDictionary
281
     1
  3
Layout1
350
1E
  3
Layout2
350
26
  3
Model
350
22
  0
DICTIONARY
  5
43
102
{ACAD_REACTORS
330
C
102
}
330
C
100
AcDbDictionary
281
     1
  3
ByBlock
350
45
  3
ByLayer
350
44
  3
Global
350
46
  0
DICTIONARY
  5
6B
102
{ACAD_REACTORS
330
C
102
}
330
C
100
AcDbDictionary
281
     1
  3
Standard
350
6C
  0
DICTIONARY
  5
17
102
{ACAD_REACTORS
330
C
102
}
330
C
100
AcDbDictionary
281
     1
  3
Standard
350
18
  0
DICTIONARY
  5
19
102
{ACAD_REACTORS
330
C
102
}
330
C
100
AcDbDictionary
281
     1
  0
ACDBDICTIONARYWDFLT
  5
E
102
{ACAD_REACTORS
330
C
102
}
330
C
100
AcDbDictionary
281
     1
  3
Normal
350
F
100
AcDbDictionaryWithDefault
340
F
  0
DICTIONARY
  5
47
102
{ACAD_REACTORS
330
C
102
}
330
C
100
AcDbDictionary
281
     1
  3
A0
350
48
  3
A1
350
49
  3
A2
350
4A
  3
A3
350
4B
  3
A4
350
4C
  3
A5
350
4D
  3
A6
350
4E
  3
A7
350
4F
  3
A8
350
50
  3
A9
350
51
  3
B0
350
52
  3
B1
350
53
  3
B2
350
54
  3
B3
350
55
  3
B4
350
56
  3
B5
350
57
  3
B6
350
58
  3
B7
350
59
  3
B8
350
5A
  3
B9
350
5B
  3
C0
350
5C
  3
C1
350
5D
  3
C2
350
5E
  3
C3
350
5F
  3
C4
350
60
  3
C5
350
61
  3
C6
350
62
  3
C7
350
63
  3
C8
350
64
  3
C9
350
65
  3
D0
350
66
  3
D1
350
67
  3
D2
350
68
  0
DICTIONARY
  5
CE
102
{ACAD_REACTORS
330
C
102
}
330
C
100
AcDbDictionary
281
     1
  3
Imperial24
350
D2
  0
DICTIONARY
  5
69
102
{ACAD_REACTORS
330
C
102
}
330
C
100
AcDbDictionary
281
     1
  3
Standard
350
6A
  0
DICTIONARY
  5
2A
102
{ACAD_REACTORS
330
C
102
}
330
C
100
AcDbDictionary
281
     1
  3
2dWireframe
350
2F
  3
Basic
350
32
  3
Brighten
350
36
  3
ColorChange
350
3A
  3
Conceptual
350
34
  3
Dim
350
35
  3
EdgeColorOff
350
3D
  3
Facepattern
350
39
  3
Flat
350
2B
  3
FlatWithEdges
350
2C
  3
Gouraud
350
2D
  3
GouraudWithEdges
350
2E
  3
Hidden
350
31
  3
JitterOff
350
3B
  3
Linepattern
350
38
  3
OverhangOff
350
3C
  3
Realistic
350
33
  3
Shaded
350
42
  3
Shaded with edges
350
41
  3
Shades of Gray
350
3E
  3
Sketchy
350
3F
  3
Thicken
350
37
  3
Wireframe
350
30
  3
X-Ray
350
40
  0
XRECORD
  5
484
102
{ACAD_REACTORS
330
C
102
}
330
C
100
AcDbXrecord
280
     1
 90
        1
330
6A
330
D2
330
D3
  0
DICTIONARY
  5
92
102
{ACAD_REACTORS
330
C
102
}
330
C
100
AcDbDictionary
281
     1
  3
CANNOSCALE
350
93
  3
CMLEADERSTYLE
350
CC
  3
CTABLESTYLE
350
CB
  3
CVIEWDETAILSTYLE
350
467
  3
CVIEWSECTIONSTYLE
350
468
  3
LAYEREVAL
350
469
  3
LAYERNOTIFY
350
46A
  0
XRECORD
  5
464
102
{ACAD_REACTORS
330
463
102
}
330
463
100
AcDbXrecord
280
     1
290
     1
  0
XRECORD
  5
466
102
{ACAD_REACTORS
330
465
102
}
330
465
100
AcDbXrecord
280
     1
290
     1
  0
SORTENTSTABLE
  5
100
102
{ACAD_REACTORS
330
FF
102
}
330
FF
100
AcDbSortentsTable
330
1F
331
2B4
  5
197
331
1E6
  5
272
331
202
  5
257
331
285
  5
1C5
331
26D
  5
1E4
331
278
  5
1D0
331
2A6
  5
1B8
331
259
  5
1EF
  0
ACDBDETAILVIEWSTYLE
  5
D3
102
{ACAD_XDICTIONARY
360
46F
102
}
102
{ACAD_REACTORS
330
CD
102
}
330
CD
100
AcDbModelDocViewStyle
 70
     0
  3
Imperial24
290
     0
100
AcDbDetailViewStyle
 70
     0
 71
     0
 90
        3
 71
     1
340
11
 62
   256
 40
0.24
340
0
 62
   256
 40
0.24
300

 40
0.36
280
     3
 71
     2
340
16
 90
       25
 62
   256
 71
     3
340
11
 62
   256
 40
0.24
 90
        1
 40
0.75
 90
        1
300
%<\AcVar ViewType \f "%tc1">% %<\AcVar ViewDetailId>%\PSCALE %<\AcVar ViewScale \f "%sn">%
 71
     4
340
16
 90
       25
 62
   256
340
16
 90
       25
 62
   256
280
     0
  0
LAYOUT
  5
1E
102
{ACAD_REACTORS
330
1A
102
}
330
1A
100
AcDbPlotSettings
  1

  2
none_device
  4

  6

 40
0.0
 41
0.0
 42
0.0
 43
0.0
 44
0.0
 45
0.0
 46
0.0
 47
0.0
 48
0.0
 49
0.0
140
0.0
141
0.0
142
1.0
143
1.0
 70
   688
 72
     0
 73
     0
 74
     5
  7

 75
    16
147
1.0
 76
     0
 77
     2
 78
   300
148
0.0
149
0.0
100
AcDbLayout
  1
Layout1
 70
     1
 71
     1
 10
0.0
 20
0.0
 11
12.0
 21
9.0
 12
0.0
 22
0.0
 32
0.0
 14
1.000000000000000E+20
 24
1.000000000000000E+20
 34
1.000000000000000E+20
 15
-1.000000000000000E+20
 25
-1.000000000000000E+20
 35
-1.000000000000000E+20
146
0.0
 13
0.0
 23
0.0
 33
0.0
 16
1.0
 26
0.0
 36
0.0
 17
0.0
 27
1.0
 37
0.0
 76
     0
330
1B
  0
LAYOUT
  5
26
102
{ACAD_REACTORS
330
1A
102
}
330
1A
100
AcDbPlotSettings
  1

  2
none_device
  4

  6

 40
0.0
 41
0.0
 42
0.0
 43
0.0
 44
0.0
 45
0.0
 46
0.0
 47
0.0
 48
0.0
 49
0.0
140
0.0
141
0.0
142
1.0
143
1.0
 70
   688
 72
     0
 73
     0
 74
     5
  7

 75
    16
147
1.0
 76
     0
 77
     2
 78
   300
148
0.0
149
0.0
100
AcDbLayout
  1
Layout2
 70
     1
 71
     2
 10
0.0
 20
0.0
 11
0.0
 21
0.0
 12
0.0
 22
0.0
 32
0.0
 14
0.0
 24
0.0
 34
0.0
 15
0.0
 25
0.0
 35
0.0
146
0.0
 13
0.0
 23
0.0
 33
0.0
 16
1.0
 26
0.0
 36
0.0
 17
0.0
 27
1.0
 37
0.0
 76
     0
330
23
  0
LAYOUT
  5
22
102
{ACAD_REACTORS
330
1A
102
}
330
1A
100
AcDbPlotSettings
  1

  2
none_device
  4
Letter_(8.50_x_11.00_Inches)
  6

 40
6.349999999999997
 41
6.349999999999997
 42
6.350005079999997
 43
6.350005079999997
 44
215.9
 45
279.4
 46
0.0
 47
0.0
 48
0.0
 49
0.0
140
0.0
141
0.0
142
1.0
143
1.0
 70
  1712
 72
     0
 73
     0
 74
     0
  7

 75
     0
147
1.0
 76
     0
 77
     2
 78
   300
148
0.0
149
0.0
100
AcDbLayout
  1
Model
 70
     1
 71
     0
 10
0.0
 20
0.0
 11
12.0
 21
9.0
 12
0.0
 22
0.0
 32
0.0
 14
-117.547
 24
-101.6713
 34
0.0
 15
118.7528
 25
90.80350000000001
 35
0.0
146
0.0
 13
0.0
 23
0.0
 33
0.0
 16
1.0
 26
0.0
 36
0.0
 17
0.0
 27
1.0
 37
0.0
 76
     0
330
1F
331
29
  0
MATERIAL
  5
45
102
{ACAD_REACTORS
330
43
102
}
330
43
100
AcDbMaterial
  1
ByBlock
  0
MATERIAL
  5
44
102
{ACAD_REACTORS
330
43
102
}
330
43
100
AcDbMaterial
  1
ByLayer
  0
MATERIAL
  5
46
102
{ACAD_REACTORS
330
43
102
}
330
43
100
AcDbMaterial
  1
Global
  0
MLEADERSTYLE
  5
6C
102
{ACAD_REACTORS
330
6B
102
}
330
6B
100
AcDbMLeaderStyle
179
     2
170
     2
171
     1
172
     0
 90
        2
 40
0.0
 41
0.0
173
     1
 91
-1056964608
340
14
 92
       -2
290
     1
 42
0.09
291
     1
 43
0.36
  3
Standard
 44
0.18
300

342
11
174
     1
178
     6
175
     1
176
     0
 93
-1056964608
 45
0.18
292
     0
297
     0
 46
0.18
 94
-1056964608
 47
1.0
 49
1.0
140
1.0
293
     1
141
0.0
294
     1
177
     0
142
1.0
295
     0
296
     0
143
0.125
271
     0
272
     9
273
     9
298
     0
1001
ACAD_MLEADERVER
1070
     2
  0
MLINESTYLE
  5
18
102
{ACAD_REACTORS
330
17
102
}
330
17
100
AcDbMlineStyle
  2
STANDARD
 70
     0
  3

 62
   256
 51
90.0
 52
90.0
 71
     2
 49
0.5
 62
   256
  6
BYLAYER
 49
-0.5
 62
   256
  6
BYLAYER
  0
ACDBPLACEHOLDER
  5
F
102
{ACAD_REACTORS
330
E
102
}
330
E
  0
SCALE
  5
48
102
{ACAD_REACTORS
330
47
102
}
330
47
100
AcDbScale
 70
     0
300
1:1
140
1.0
141
1.0
290
     1
  0
SCALE
  5
49
102
{ACAD_REACTORS
330
47
102
}
330
47
100
AcDbScale
 70
     0
300
1:2
140
1.0
141
2.0
290
     0
  0
SCALE
  5
4A
102
{ACAD_REACTORS
330
47
102
}
330
47
100
AcDbScale
 70
     0
300
1:4
140
1.0
141
4.0
290
     0
  0
SCALE
  5
4B
102
{ACAD_REACTORS
330
47
102
}
330
47
100
AcDbScale
 70
     0
300
1:5
140
1.0
141
5.0
290
     0
  0
SCALE
  5
4C
102
{ACAD_REACTORS
330
47
102
}
330
47
100
AcDbScale
 70
     0
300
1:8
140
1.0
141
8.0
290
     0
  0
SCALE
  5
4D
102
{ACAD_REACTORS
330
47
102
}
330
47
100
AcDbScale
 70
     0
300
1:10
140
1.0
141
10.0
290
     0
  0
SCALE
  5
4E
102
{ACAD_REACTORS
330
47
102
}
330
47
100
AcDbScale
 70
     0
300
1:16
140
1.0
141
16.0
290
     0
  0
SCALE
  5
4F
102
{ACAD_REACTORS
330
47
102
}
330
47
100
AcDbScale
 70
     0
300
1:20
140
1.0
141
20.0
290
     0
  0
SCALE
  5
50
102
{ACAD_REACTORS
330
47
102
}
330
47
100
AcDbScale
 70
     0
300
1:30
140
1.0
141
30.0
290
     0
  0
SCALE
  5
51
102
{ACAD_REACTORS
330
47
102
}
330
47
100
AcDbScale
 70
     0
300
1:40
140
1.0
141
40.0
290
     0
  0
SCALE
  5
52
102
{ACAD_REACTORS
330
47
102
}
330
47
100
AcDbScale
 70
     0
300
1:50
140
1.0
141
50.0
290
     0
  0
SCALE
  5
53
102
{ACAD_REACTORS
330
47
102
}
330
47
100
AcDbScale
 70
     0
300
1:100
140
1.0
141
100.0
290
     0
  0
SCALE
  5
54
102
{ACAD_REACTORS
330
47
102
}
330
47
100
AcDbScale
 70
     0
300
2:1
140
2.0
141
1.0
290
     0
  0
SCALE
  5
55
102
{ACAD_REACTORS
330
47
102
}
330
47
100
AcDbScale
 70
     0
300
4:1
140
4.0
141
1.0
290
     0
  0
SCALE
  5
56
102
{ACAD_REACTORS
330
47
102
}
330
47
100
AcDbScale
 70
     0
300
8:1
140
8.0
141
1.0
290
     0
  0
SCALE
  5
57
102
{ACAD_REACTORS
330
47
102
}
330
47
100
AcDbScale
 70
     0
300
10:1
140
10.0
141
1.0
290
     0
  0
SCALE
  5
58
102
{ACAD_REACTORS
330
47
102
}
330
47
100
AcDbScale
 70
     0
300
100:1
140
100.0
141
1.0
290
     0
  0
SCALE
  5
59
102
{ACAD_REACTORS
330
47
102
}
330
47
100
AcDbScale
 70
     0
300
1/128" = 1'-0"
140
0.0078125
141
12.0
290
     0
  0
SCALE
  5
5A
102
{ACAD_REACTORS
330
47
102
}
330
47
100
AcDbScale
 70
     0
300
1/64" = 1'-0"
140
0.015625
141
12.0
290
     0
  0
SCALE
  5
5B
102
{ACAD_REACTORS
330
47
102
}
330
47
100
AcDbScale
 70
     0
300
1/32" = 1'-0"
140
0.03125
141
12.0
290
     0
  0
SCALE
  5
5C
102
{ACAD_REACTORS
330
47
102
}
330
47
100
AcDbScale
 70
     0
300
1/16" = 1'-0"
140
0.0625
141
12.0
290
     0
  0
SCALE
  5
5D
102
{ACAD_REACTORS
330
47
102
}
330
47
100
AcDbScale
 70
     0
300
3/32" = 1'-0"
140
0.09375
141
12.0
290
     0
  0
SCALE
  5
5E
102
{ACAD_REACTORS
330
47
102
}
330
47
100
AcDbScale
 70
     0
300
1/8" = 1'-0"
140
0.125
141
12.0
290
     0
  0
SCALE
  5
5F
102
{ACAD_REACTORS
330
47
102
}
330
47
100
AcDbScale
 70
     0
300
3/16" = 1'-0"
140
0.1875
141
12.0
290
     0
  0
SCALE
  5
60
102
{ACAD_REACTORS
330
47
102
}
330
47
100
AcDbScale
 70
     0
300
1/4" = 1'-0"
140
0.25
141
12.0
290
     0
  0
SCALE
  5
61
102
{ACAD_REACTORS
330
47
102
}
330
47
100
AcDbScale
 70
     0
300
3/8" = 1'-0"
140
0.375
141
12.0
290
     0
  0
SCALE
  5
62
102
{ACAD_REACTORS
330
47
102
}
330
47
100
AcDbScale
 70
     0
300
1/2" = 1'-0"
140
0.5
141
12.0
290
     0
  0
SCALE
  5
63
102
{ACAD_REACTORS
330
47
102
}
330
47
100
AcDbScale
 70
     0
300
3/4" = 1'-0"
140
0.75
141
12.0
290
     0
  0
SCALE
  5
64
102
{ACAD_REACTORS
330
47
102
}
330
47
100
AcDbScale
 70
     0
300
1" = 1'-0"
140
1.0
141
12.0
290
     0
  0
SCALE
  5
65
102
{ACAD_REACTORS
330
47
102
}
330
47
100
AcDbScale
 70
     0
300
1-1/2" = 1'-0"
140
1.5
141
12.0
290
     0
  0
SCALE
  5
66
102
{ACAD_REACTORS
330
47
102
}
330
47
100
AcDbScale
 70
     0
300
3" = 1'-0"
140
3.0
141
12.0
290
     0
  0
SCALE
  5
67
102
{ACAD_REACTORS
330
47
102
}
330
47
100
AcDbScale
 70
     0
300
6" = 1'-0"
140
6.0
141
12.0
290
     0
  0
SCALE
  5
68
102
{ACAD_REACTORS
330
47
102
}
330
47
100
AcDbScale
 70
     0
300
1'-0" = 1'-0"
140
12.0
141
12.0
290
     0
  0
ACDBSECTIONVIEWSTYLE
  5
D2
102
{ACAD_XDICTIONARY
360
46D
102
}
102
{ACAD_REACTORS
330
CE
102
}
330
CE
100
AcDbModelDocViewStyle
 70
     0
  3
Imperial24
290
     0
100
AcDbSectionViewStyle
 70
     0
 71
     0
 90
       78
 71
     1
340
11
 62
   256
 40
0.24
340
0
340
0
 62
   256
 40
0.24
300
I, O, Q, S, X, Z
 40
0.48
 90
        3
 40
0.18
 90
        1
 71
     2
340
16
 90
       25
 62
   256
340
16
 90
       50
 62
   256
 40
0.24
 40
0.0
 40
0.24
 71
     3
340
11
 62
   256
 40
0.24
 90
        1
 40
0.75
 90
        1
300
%<\AcVar ViewType \f "%tc1">% %<\AcVar ViewSectionStartId>%-%<\AcVar ViewSectionEndId>%\PSCALE %<\AcVar ViewScale \f "%sn">%
 71
     4
 62
   256
 62
   257
300
ANSI31
 40
1.0
 90
        0
290
     0
290
     0
 90
        6
 40
0.0
 40
1.570796326794896
 40
0.2617993877991494
 40
1.308996938995747
 40
-0.2617993877991494
 40
1.832595714594044
  0
TABLESTYLE
  5
6A
102
{ACAD_XDICTIONARY
360
C5
102
}
102
{ACAD_REACTORS
330
69
102
}
330
69
100
AcDbTableStyle
280
     0
  3
Standard
 70
     0
 71
     0
 40
0.06
 41
0.06
280
     0
281
     0
  7
Standard
140
0.18
170
     2
 62
     0
 63
     7
283
     0
 90
        4
 91
        0
  1

274
    -2
284
     1
 64
     0
275
    -2
285
     1
 65
     0
276
    -2
286
     1
 66
     0
277
    -2
287
     1
 67
     0
278
    -2
288
     1
 68
     0
279
    -2
289
     1
 69
     0
  7
Standard
140
0.25
170
     5
 62
     0
 63
     7
283
     0
 90
        4
 91
        0
  1

274
    -2
284
     1
 64
     0
275
    -2
285
     1
 65
     0
276
    -2
286
     1
 66
     0
277
    -2
287
     1
 67
     0
278
    -2
288
     1
 68
     0
279
    -2
289
     1
 69
     0
  7
Standard
140
0.18
170
     5
 62
     0
 63
     7
283
     0
 90
        4
 91
        0
  1

274
    -2
284
     1
 64
     0
275
    -2
285
     1
 65
     0
276
    -2
286
     1
 66
     0
277
    -2
287
     1
 67
     0
278
    -2
288
     1
 68
     0
279
    -2
289
     1
 69
     0
  0
VISUALSTYLE
  5
2F
102
{ACAD_REACTORS
330
2A
102
}
330
2A
100
AcDbVisualStyle
  2

 70
     4
177
     3
291
     0
 70
    58
 90
        0
176
     1
 90
        2
176
     1
 90
        0
176
     1
 90
        0
176
     1
 40
0.6
176
     1
 40
30.0
176
     1
 62
     7
420
 16777215
176
     1
 90
        1
176
     1
 90
        4
176
     1
 62
     7
176
     1
 62
   257
176
     1
 90
        1
176
     1
 90
        1
176
     1
 40
1.0
176
     1
 90
        0
176
     1
 62
   257
176
     1
 40
1.0
176
     1
 90
        1
176
     1
 90
        6
176
     1
 90
        2
176
     1
 62
     7
176
     1
 90
        5
176
     1
 90
        0
176
     1
 90
        0
176
     1
290
     0
176
     1
 90
        1
176
     1
 40
0.0
176
     1
 90
        0
176
     1
290
     1
176
     1
290
     1
176
     1
290
     0
176
     1
290
     0
176
     1
290
     0
176
     1
290
     0
176
     1
290
     0
176
     1
290
     0
176
     1
290
     0
176
     1
 90
       50
176
     1
 40
0.0
176
     1
 40
1.0
176
     1
 90
        0
176
     1
 62
    18
176
     1
 90
       50
176
     1
 90
        3
176
     1
 62
     5
420
      255
176
     1
290
     0
176
     1
 90
       50
176
     1
 90
       50
176
     1
 90
       50
176
     1
290
     0
176
     1
 90
       50
176
     1
 62
   256
176
     0
 40
1.0
176
     0
 90
        2
176
     1
  1
strokes_ogs.tif
176
     1
290
     0
176
     1
 40
1.0
176
     1
 40
1.0
176
     1
  0
VISUALSTYLE
  5
32
102
{ACAD_REACTORS
330
2A
102
}
330
2A
100
AcDbVisualStyle
  2

 70
     7
177
     3
291
     1
 70
    58
 90
        1
176
     1
 90
        0
176
     1
 90
        1
176
     1
 90
        0
176
     1
 40
0.6
176
     1
 40
30.0
176
     1
 62
     7
420
 16777215
176
     1
 90
        0
176
     1
 90
        4
176
     1
 62
     7
176
     1
 62
   257
176
     1
 90
        1
176
     1
 90
        1
176
     1
 40
1.0
176
     1
 90
        8
176
     1
 62
     7
176
     1
 40
1.0
176
     1
 90
        1
176
     1
 90
        6
176
     1
 90
        2
176
     1
 62
     7
176
     1
 90
        5
176
     1
 90
        0
176
     1
 90
        0
176
     1
290
     0
176
     1
 90
        1
176
     1
 40
0.0
176
     1
 90
        0
176
     1
290
     0
176
     1
290
     1
176
     1
290
     1
176
     1
290
     0
176
     1
290
     0
176
     1
290
     0
176
     1
290
     0
176
     1
290
     0
176
     1
290
     0
176
     1
 90
       50
176
     1
 40
0.0
176
     1
 40
1.0
176
     1
 90
        0
176
     1
 62
    18
176
     1
 90
       50
176
     1
 90
        3
176
     1
 62
     5
420
      255
176
     1
290
     0
176
     1
 90
       50
176
     1
 90
       50
176
     1
 90
       50
176
     1
290
     0
176
     1
 90
       50
176
     1
 62
   256
176
     0
 40
1.0
176
     0
 90
        2
176
     1
  1
strokes_ogs.tif
176
     1
290
     0
176
     1
 40
1.0
176
     1
 40
1.0
176
     1
  0
VISUALSTYLE
  5
36
102
{ACAD_REACTORS
330
2A
102
}
330
2A
100
AcDbVisualStyle
  2

 70
    12
177
     3
291
     1
 70
    58
 90
        2
176
     1
 90
        2
176
     1
 90
        0
176
     1
 90
        0
176
     1
 40
0.6
176
     1
 40
30.0
176
     1
 62
     7
420
 16777215
176
     1
 90
        1
176
     1
 90
        4
176
     1
 62
     7
176
     1
 62
   257
176
     1
 90
        1
176
     1
 90
        1
176
     1
 40
1.0
176
     1
 90
        8
176
     1
 62
     7
176
     1
 40
1.0
176
     1
 90
        1
176
     1
 90
        6
176
     1
 90
        2
176
     1
 62
     7
176
     1
 90
        5
176
     1
 90
        0
176
     1
 90
        0
176
     1
290
     0
176
     1
 90
        1
176
     1
 40
50.0
176
     1
 90
        0
176
     1
290
     0
176
     1
290
     1
176
     1
290
     1
176
     1
290
     0
176
     1
290
     0
176
     1
290
     0
176
     1
290
     0
176
     1
290
     0
176
     1
290
     0
176
     1
 90
       50
176
     1
 40
0.0
176
     1
 40
1.0
176
     1
 90
        0
176
     1
 62
    18
176
     1
 90
       50
176
     1
 90
        3
176
     1
 62
     5
420
      255
176
     1
290
     0
176
     1
 90
       50
176
     1
 90
       50
176
     1
 90
       50
176
     1
290
     0
176
     1
 90
       50
176
     1
 62
   256
176
     0
 40
1.0
176
     0
 90
        2
176
     1
  1
strokes_ogs.tif
176
     1
290
     0
176
     1
 40
1.0
176
     1
 40
1.0
176
     1
  0
VISUALSTYLE
  5
3A
102
{ACAD_REACTORS
330
2A
102
}
330
2A
100
AcDbVisualStyle
  2

 70
    16
177
     3
291
     1
 70
    58
 90
        2
176
     1
 90
        2
176
     1
 90
        3
176
     1
 90
        0
176
     1
 40
0.6
176
     1
 40
30.0
176
     1
 62
     8
420
  8421504
176
     1
 90
        1
176
     1
 90
        4
176
     1
 62
     7
176
     1
 62
   257
176
     1
 90
        1
176
     1
 90
        1
176
     1
 40
1.0
176
     1
 90
        8
176
     1
 62
     8
420
  8421504
176
     1
 40
1.0
176
     1
 90
        1
176
     1
 90
        6
176
     1
 90
        2
176
     1
 62
     7
176
     1
 90
        5
176
     1
 90
        0
176
     1
 90
        0
176
     1
290
     0
176
     1
 90
        1
176
     1
 40
0.0
176
     1
 90
        0
176
     1
290
     0
176
     1
290
     1
176
     1
290
     1
176
     1
290
     0
176
     1
290
     0
176
     1
290
     0
176
     1
290
     0
176
     1
290
     0
176
     1
290
     0
176
     1
 90
       50
176
     1
 40
0.0
176
     1
 40
1.0
176
     1
 90
        0
176
     1
 62
    18
176
     1
 90
       50
176
     1
 90
        3
176
     1
 62
     5
420
      255
176
     1
290
     0
176
     1
 90
       50
176
     1
 90
       50
176
     1
 90
       50
176
     1
290
     0
176
     1
 90
       50
176
     1
 62
   256
176
     0
 40
1.0
176
     0
 90
        2
176
     1
  1
strokes_ogs.tif
176
     1
290
     0
176
     1
 40
1.0
176
     1
 40
1.0
176
     1
  0
VISUALSTYLE
  5
34
102
{ACAD_REACTORS
330
2A
102
}
330
2A
100
AcDbVisualStyle
  2

 70
     9
177
     3
291
     0
 70
    58
 90
        3
176
     1
 90
        2
176
     1
 90
        0
176
     1
 90
        0
176
     1
 40
0.6
176
     1
 40
30.0
176
     1
 62
     7
420
 16777215
176
     1
 90
        2
176
     1
 90
        2
176
     1
 62
     7
176
     1
 62
   257
176
     1
 90
        1
176
     1
 90
        1
176
     1
 40
179.0
176
     1
 90
        8
176
     1
 62
     7
176
     1
 40
1.0
176
     1
 90
        1
176
     1
 90
        6
176
     1
 90
        2
176
     1
 62
     7
176
     1
 90
        3
176
     1
 90
        0
176
     1
 90
        0
176
     1
290
     0
176
     1
 90
        1
176
     1
 40
0.0
176
     1
 90
        0
176
     1
290
     0
176
     1
290
     1
176
     1
290
     1
176
     1
290
     0
176
     1
290
     0
176
     1
290
     0
176
     1
290
     0
176
     1
290
     0
176
     1
290
     0
176
     1
 90
       50
176
     1
 40
0.0
176
     1
 40
1.0
176
     1
 90
        0
176
     1
 62
    18
176
     1
 90
       50
176
     1
 90
        3
176
     1
 62
     5
420
      255
176
     1
290
     0
176
     1
 90
       50
176
     1
 90
       50
176
     1
 90
       50
176
     1
290
     0
176
     1
 90
       50
176
     1
 62
   256
176
     0
 40
1.0
176
     0
 90
        2
176
     1
  1
strokes_ogs.tif
176
     1
290
     0
176
     1
 40
1.0
176
     1
 40
1.0
176
     1
  0
VISUALSTYLE
  5
35
102
{ACAD_REACTORS
330
2A
102
}
330
2A
100
AcDbVisualStyle
  2

 70
    11
177
     3
291
     1
 70
    58
 90
        2
176
     1
 90
        2
176
     1
 90
        0
176
     1
 90
        0
176
     1
 40
0.6
176
     1
 40
30.0
176
     1
 62
     7
420
 16777215
176
     1
 90
        1
176
     1
 90
        4
176
     1
 62
     7
176
     1
 62
   257
176
     1
 90
        1
176
     1
 90
        1
176
     1
 40
1.0
176
     1
 90
        8
176
     1
 62
     7
176
     1
 40
1.0
176
     1
 90
        1
176
     1
 90
        6
176
     1
 90
        2
176
     1
 62
     7
176
     1
 90
        5
176
     1
 90
        0
176
     1
 90
        0
176
     1
290
     0
176
     1
 90
        1
176
     1
 40
-50.0
176
     1
 90
        0
176
     1
290
     0
176
     1
290
     1
176
     1
290
     1
176
     1
290
     0
176
     1
290
     0
176
     1
290
     0
176
     1
290
     0
176
     1
290
     0
176
     1
290
     0
176
     1
 90
       50
176
     1
 40
0.0
176
     1
 40
1.0
176
     1
 90
        0
176
     1
 62
    18
176
     1
 90
       50
176
     1
 90
        3
176
     1
 62
     5
420
      255
176
     1
290
     0
176
     1
 90
       50
176
     1
 90
       50
176
     1
 90
       50
176
     1
290
     0
176
     1
 90
       50
176
     1
 62
   256
176
     0
 40
1.0
176
     0
 90
        2
176
     1
  1
strokes_ogs.tif
176
     1
290
     0
176
     1
 40
1.0
176
     1
 40
1.0
176
     1
  0
VISUALSTYLE
  5
3D
102
{ACAD_REACTORS
330
2A
102
}
330
2A
100
AcDbVisualStyle
  2

 70
    22
177
     3
291
     1
 70
    58
 90
        2
176
     0
 90
        2
176
     0
 90
        0
176
     0
 90
        0
176
     0
 40
0.6
176
     0
 40
30.0
176
     0
 62
     7
420
 16777215
176
     0
 90
        1
176
     0
 90
        4
176
     0
 62
     7
176
     0
 62
   257
176
     0
 90
        1
176
     0
 90
        1
176
     0
 40
1.0
176
     0
 90
        8
176
     2
 62
     7
176
     0
 40
1.0
176
     0
 90
        1
176
     0
 90
        6
176
     0
 90
        2
176
     0
 62
     7
176
     0
 90
        5
176
     0
 90
        0
176
     0
 90
        0
176
     0
290
     0
176
     0
 90
        1
176
     0
 40
0.0
176
     0
 90
        0
176
     0
290
     0
176
     0
290
     1
176
     0
290
     1
176
     0
290
     0
176
     0
290
     0
176
     0
290
     0
176
     0
290
     0
176
     0
290
     0
176
     0
290
     0
176
     0
 90
       50
176
     0
 40
0.0
176
     0
 40
1.0
176
     0
 90
        0
176
     0
 62
    18
176
     0
 90
       50
176
     0
 90
        3
176
     0
 62
     5
420
      255
176
     0
290
     0
176
     0
 90
       50
176
     0
 90
       50
176
     0
 90
       50
176
     0
290
     0
176
     0
 90
       50
176
     0
 62
   256
176
     0
 40
1.0
176
     0
 90
        2
176
     0
  1
strokes_ogs.tif
176
     0
290
     0
176
     0
 40
1.0
176
     0
 40
1.0
176
     0
  0
VISUALSTYLE
  5
39
102
{ACAD_REACTORS
330
2A
102
}
330
2A
100
AcDbVisualStyle
  2

 70
    15
177
     3
291
     1
 70
    58
 90
        2
176
     1
 90
        2
176
     1
 90
        0
176
     1
 90
        0
176
     1
 40
0.6
176
     1
 40
30.0
176
     1
 62
     7
420
 16777215
176
     1
 90
        1
176
     1
 90
        4
176
     1
 62
     7
176
     1
 62
   257
176
     1
 90
        1
176
     1
 90
        1
176
     1
 40
1.0
176
     1
 90
        8
176
     1
 62
     7
176
     1
 40
1.0
176
     1
 90
        1
176
     1
 90
        6
176
     1
 90
        2
176
     1
 62
     7
176
     1
 90
        5
176
     1
 90
        0
176
     1
 90
        0
176
     1
290
     0
176
     1
 90
        1
176
     1
 40
0.0
176
     1
 90
        0
176
     1
290
     0
176
     1
290
     1
176
     1
290
     1
176
     1
290
     0
176
     1
290
     0
176
     1
290
     0
176
     1
290
     0
176
     1
290
     0
176
     1
290
     0
176
     1
 90
       50
176
     1
 40
0.0
176
     1
 40
1.0
176
     1
 90
        0
176
     1
 62
    18
176
     1
 90
       50
176
     1
 90
        3
176
     1
 62
     5
420
      255
176
     1
290
     0
176
     1
 90
       50
176
     1
 90
       50
176
     1
 90
       50
176
     1
290
     0
176
     1
 90
       50
176
     1
 62
   256
176
     0
 40
1.0
176
     0
 90
        2
176
     1
  1
strokes_ogs.tif
176
     1
290
     0
176
     1
 40
1.0
176
     1
 40
1.0
176
     1
  0
VISUALSTYLE
  5
2B
102
{ACAD_REACTORS
330
2A
102
}
330
2A
100
AcDbVisualStyle
  2

 70
     0
177
     3
291
     1
 70
    58
 90
        2
176
     1
 90
        1
176
     1
 90
        1
176
     1
 90
        2
176
     1
 40
0.6
176
     1
 40
30.0
176
     1
 62
     7
420
 16777215
176
     1
 90
        0
176
     1
 90
        0
176
     1
 62
     7
176
     1
 62
   257
176
     1
 90
        1
176
     1
 90
        1
176
     1
 40
1.0
176
     1
 90
        8
176
     1
 62
     7
176
     1
 40
1.0
176
     1
 90
        1
176
     1
 90
        6
176
     1
 90
        2
176
     1
 62
     7
176
     1
 90
        5
176
     1
 90
        0
176
     1
 90
        0
176
     1
290
     0
176
     1
 90
       13
176
     1
 40
0.0
176
     1
 90
        0
176
     1
290
     0
176
     1
290
     1
176
     1
290
     1
176
     1
290
     0
176
     1
290
     0
176
     1
290
     0
176
     1
290
     0
176
     1
290
     0
176
     1
290
     0
176
     1
 90
       50
176
     1
 40
0.0
176
     1
 40
1.0
176
     1
 90
        0
176
     1
 62
    18
176
     1
 90
       50
176
     1
 90
        3
176
     1
 62
     5
420
      255
176
     1
290
     0
176
     1
 90
       50
176
     1
 90
       50
176
     1
 90
       50
176
     1
290
     0
176
     1
 90
       50
176
     1
 62
   256
176
     0
 40
1.0
176
     0
 90
        2
176
     1
  1
strokes_ogs.tif
176
     1
290
     0
176
     1
 40
1.0
176
     1
 40
1.0
176
     1
  0
VISUALSTYLE
  5
2C
102
{ACAD_REACTORS
330
2A
102
}
330
2A
100
AcDbVisualStyle
  2

 70
     1
177
     3
291
     1
 70
    58
 90
        2
176
     1
 90
        1
176
     1
 90
        1
176
     1
 90
        2
176
     1
 40
0.6
176
     1
 40
30.0
176
     1
 62
     7
420
 16777215
176
     1
 90
        1
176
     1
 90
        0
176
     1
 62
     7
176
     1
 62
   257
176
     1
 90
        1
176
     1
 90
        1
176
     1
 40
1.0
176
     1
 90
        0
176
     1
 62
   257
176
     1
 40
1.0
176
     1
 90
        1
176
     1
 90
        6
176
     1
 90
        2
176
     1
 62
     7
176
     1
 90
        5
176
     1
 90
        0
176
     1
 90
        0
176
     1
290
     0
176
     1
 90
       13
176
     1
 40
0.0
176
     1
 90
        0
176
     1
290
     0
176
     1
290
     1
176
     1
290
     1
176
     1
290
     0
176
     1
290
     0
176
     1
290
     0
176
     1
290
     0
176
     1
290
     0
176
     1
290
     0
176
     1
 90
       50
176
     1
 40
0.0
176
     1
 40
1.0
176
     1
 90
        0
176
     1
 62
    18
176
     1
 90
       50
176
     1
 90
        3
176
     1
 62
     5
420
      255
176
     1
290
     0
176
     1
 90
       50
176
     1
 90
       50
176
     1
 90
       50
176
     1
290
     0
176
     1
 90
       50
176
     1
 62
   256
176
     0
 40
1.0
176
     0
 90
        2
176
     1
  1
strokes_ogs.tif
176
     1
290
     0
176
     1
 40
1.0
176
     1
 40
1.0
176
     1
  0
VISUALSTYLE
  5
2D
102
{ACAD_REACTORS
330
2A
102
}
330
2A
100
AcDbVisualStyle
  2

 70
     2
177
     3
291
     1
 70
    58
 90
        2
176
     1
 90
        2
176
     1
 90
        1
176
     1
 90
        2
176
     1
 40
0.6
176
     1
 40
30.0
176
     1
 62
     7
420
 16777215
176
     1
 90
        0
176
     1
 90
        0
176
     1
 62
     7
176
     1
 62
   257
176
     1
 90
        1
176
     1
 90
        1
176
     1
 40
1.0
176
     1
 90
        0
176
     1
 62
     7
176
     1
 40
1.0
176
     1
 90
        1
176
     1
 90
        6
176
     1
 90
        2
176
     1
 62
     7
176
     1
 90
        5
176
     1
 90
        0
176
     1
 90
        0
176
     1
290
     0
176
     1
 90
       13
176
     1
 40
0.0
176
     1
 90
        0
176
     1
290
     0
176
     1
290
     1
176
     1
290
     1
176
     1
290
     0
176
     1
290
     0
176
     1
290
     0
176
     1
290
     0
176
     1
290
     0
176
     1
290
     0
176
     1
 90
       50
176
     1
 40
0.0
176
     1
 40
1.0
176
     1
 90
        0
176
     1
 62
    18
176
     1
 90
       50
176
     1
 90
        3
176
     1
 62
     5
420
      255
176
     1
290
     0
176
     1
 90
       50
176
     1
 90
       50
176
     1
 90
       50
176
     1
290
     0
176
     1
 90
       50
176
     1
 62
   256
176
     0
 40
1.0
176
     0
 90
        2
176
     1
  1
strokes_ogs.tif
176
     1
290
     0
176
     1
 40
1.0
176
     1
 40
1.0
176
     1
  0
VISUALSTYLE
  5
2E
102
{ACAD_REACTORS
330
2A
102
}
330
2A
100
AcDbVisualStyle
  2

 70
     3
177
     3
291
     1
 70
    58
 90
        2
176
     1
 90
        2
176
     1
 90
        1
176
     1
 90
        2
176
     1
 40
0.6
176
     1
 40
30.0
176
     1
 62
     7
420
 16777215
176
     1
 90
        1
176
     1
 90
        0
176
     1
 62
     7
176
     1
 62
   257
176
     1
 90
        1
176
     1
 90
        1
176
     1
 40
1.0
176
     1
 90
        0
176
     1
 62
   257
176
     1
 40
1.0
176
     1
 90
        1
176
     1
 90
        6
176
     1
 90
        2
176
     1
 62
     7
176
     1
 90
        5
176
     1
 90
        0
176
     1
 90
        0
176
     1
290
     0
176
     1
 90
       13
176
     1
 40
0.0
176
     1
 90
        0
176
     1
290
     0
176
     1
290
     1
176
     1
290
     1
176
     1
290
     0
176
     1
290
     0
176
     1
290
     0
176
     1
290
     0
176
     1
290
     0
176
     1
290
     0
176
     1
 90
       50
176
     1
 40
0.0
176
     1
 40
1.0
176
     1
 90
        0
176
     1
 62
    18
176
     1
 90
       50
176
     1
 90
        3
176
     1
 62
     5
420
      255
176
     1
290
     0
176
     1
 90
       50
176
     1
 90
       50
176
     1
 90
       50
176
     1
290
     0
176
     1
 90
       50
176
     1
 62
   256
176
     0
 40
1.0
176
     0
 90
        2
176
     1
  1
strokes_ogs.tif
176
     1
290
     0
176
     1
 40
1.0
176
     1
 40
1.0
176
     1
  0
VISUALSTYLE
  5
31
102
{ACAD_REACTORS
330
2A
102
}
330
2A
100
AcDbVisualStyle
  2

 70
     6
177
     3
291
     0
 70
    58
 90
        1
176
     1
 90
        2
176
     1
 90
        2
176
     1
 90
        0
176
     1
 40
0.6
176
     1
 40
30.0
176
     1
 62
     7
420
 16777215
176
     1
 90
        2
176
     1
 90
        2
176
     1
 62
     7
176
     1
 62
   257
176
     1
 90
        2
176
     1
 90
        1
176
     1
 40
40.0
176
     1
 90
        0
176
     1
 62
   257
176
     1
 40
1.0
176
     1
 90
        1
176
     1
 90
        6
176
     1
 90
        2
176
     1
 62
     7
176
     1
 90
        3
176
     1
 90
        0
176
     1
 90
        0
176
     1
290
     0
176
     1
 90
        1
176
     1
 40
0.0
176
     1
 90
        0
176
     1
290
     0
176
     1
290
     1
176
     1
290
     1
176
     1
290
     0
176
     1
290
     0
176
     1
290
     0
176
     1
290
     0
176
     1
290
     0
176
     1
290
     0
176
     1
 90
       50
176
     1
 40
0.0
176
     1
 40
1.0
176
     1
 90
        0
176
     1
 62
    18
176
     1
 90
       50
176
     1
 90
        3
176
     1
 62
     5
420
      255
176
     1
290
     0
176
     1
 90
       50
176
     1
 90
       50
176
     1
 90
       50
176
     1
290
     0
176
     1
 90
       50
176
     1
 62
   256
176
     0
 40
1.0
176
     0
 90
        2
176
     1
  1
strokes_ogs.tif
176
     1
290
     0
176
     1
 40
1.0
176
     1
 40
1.0
176
     1
  0
VISUALSTYLE
  5
3B
102
{ACAD_REACTORS
330
2A
102
}
330
2A
100
AcDbVisualStyle
  2

 70
    20
177
     3
291
     1
 70
    58
 90
        2
176
     0
 90
        2
176
     0
 90
        0
176
     0
 90
        0
176
     0
 40
0.6
176
     0
 40
30.0
176
     0
 62
     7
420
 16777215
176
     0
 90
        1
176
     0
 90
        4
176
     0
 62
     7
176
     0
 62
   257
176
     0
 90
        1
176
     0
 90
        1
176
     0
 40
1.0
176
     0
 90
       10
176
     2
 62
     7
176
     0
 40
1.0
176
     0
 90
        1
176
     0
 90
        6
176
     0
 90
        2
176
     0
 62
     7
176
     0
 90
        5
176
     0
 90
        0
176
     0
 90
        0
176
     0
290
     0
176
     0
 90
        1
176
     0
 40
0.0
176
     0
 90
        0
176
     0
290
     0
176
     0
290
     1
176
     0
290
     1
176
     0
290
     0
176
     0
290
     0
176
     0
290
     0
176
     0
290
     0
176
     0
290
     0
176
     0
290
     0
176
     0
 90
       50
176
     0
 40
0.0
176
     0
 40
1.0
176
     0
 90
        0
176
     0
 62
    18
176
     0
 90
       50
176
     0
 90
        3
176
     0
 62
     5
420
      255
176
     0
290
     0
176
     0
 90
       50
176
     0
 90
       50
176
     0
 90
       50
176
     0
290
     0
176
     0
 90
       50
176
     0
 62
   256
176
     0
 40
1.0
176
     0
 90
        2
176
     0
  1
strokes_ogs.tif
176
     0
290
     0
176
     0
 40
1.0
176
     0
 40
1.0
176
     0
  0
VISUALSTYLE
  5
38
102
{ACAD_REACTORS
330
2A
102
}
330
2A
100
AcDbVisualStyle
  2

 70
    14
177
     3
291
     1
 70
    58
 90
        2
176
     1
 90
        2
176
     1
 90
        0
176
     1
 90
        0
176
     1
 40
0.6
176
     1
 40
30.0
176
     1
 62
     7
420
 16777215
176
     1
 90
        1
176
     1
 90
        4
176
     1
 62
     7
176
     1
 62
   257
176
     1
 90
        7
176
     1
 90
        7
176
     1
 40
1.0
176
     1
 90
        8
176
     1
 62
     7
176
     1
 40
1.0
176
     1
 90
        1
176
     1
 90
        6
176
     1
 90
        2
176
     1
 62
     7
176
     1
 90
        5
176
     1
 90
        0
176
     1
 90
        0
176
     1
290
     0
176
     1
 90
        1
176
     1
 40
0.0
176
     1
 90
        0
176
     1
290
     0
176
     1
290
     1
176
     1
290
     1
176
     1
290
     0
176
     1
290
     0
176
     1
290
     0
176
     1
290
     0
176
     1
290
     0
176
     1
290
     0
176
     1
 90
       50
176
     1
 40
0.0
176
     1
 40
1.0
176
     1
 90
        0
176
     1
 62
    18
176
     1
 90
       50
176
     1
 90
        3
176
     1
 62
     5
420
      255
176
     1
290
     0
176
     1
 90
       50
176
     1
 90
       50
176
     1
 90
       50
176
     1
290
     0
176
     1
 90
       50
176
     1
 62
   256
176
     0
 40
1.0
176
     0
 90
        2
176
     1
  1
strokes_ogs.tif
176
     1
290
     0
176
     1
 40
1.0
176
     1
 40
1.0
176
     1
  0
VISUALSTYLE
  5
3C
102
{ACAD_REACTORS
330
2A
102
}
330
2A
100
AcDbVisualStyle
  2

 70
    21
177
     3
291
     1
 70
    58
 90
        2
176
     0
 90
        2
176
     0
 90
        0
176
     0
 90
        0
176
     0
 40
0.6
176
     0
 40
30.0
176
     0
 62
     7
420
 16777215
176
     0
 90
        1
176
     0
 90
        4
176
     0
 62
     7
176
     0
 62
   257
176
     0
 90
        1
176
     0
 90
        1
176
     0
 40
1.0
176
     0
 90
        9
176
     2
 62
     7
176
     0
 40
1.0
176
     0
 90
        1
176
     0
 90
        6
176
     0
 90
        2
176
     0
 62
     7
176
     0
 90
        5
176
     0
 90
        0
176
     0
 90
        0
176
     0
290
     0
176
     0
 90
        1
176
     0
 40
0.0
176
     0
 90
        0
176
     0
290
     0
176
     0
290
     1
176
     0
290
     1
176
     0
290
     0
176
     0
290
     0
176
     0
290
     0
176
     0
290
     0
176
     0
290
     0
176
     0
290
     0
176
     0
 90
       50
176
     0
 40
0.0
176
     0
 40
1.0
176
     0
 90
        0
176
     0
 62
    18
176
     0
 90
       50
176
     0
 90
        3
176
     0
 62
     5
420
      255
176
     0
290
     0
176
     0
 90
       50
176
     0
 90
       50
176
     0
 90
       50
176
     0
290
     0
176
     0
 90
       50
176
     0
 62
   256
176
     0
 40
1.0
176
     0
 90
        2
176
     0
  1
strokes_ogs.tif
176
     0
290
     0
176
     0
 40
1.0
176
     0
 40
1.0
176
     0
  0
VISUALSTYLE
  5
33
102
{ACAD_REACTORS
330
2A
102
}
330
2A
100
AcDbVisualStyle
  2

 70
     8
177
     3
291
     0
 70
    58
 90
        2
176
     1
 90
        3
176
     1
 90
        0
176
     1
 90
        2
176
     1
 40
0.6
176
     1
 40
30.0
176
     1
 62
     7
420
 16777215
176
     1
 90
        0
176
     1
 90
        0
176
     1
 62
     7
176
     1
 62
   257
176
     1
 90
        1
176
     1
 90
        1
176
     1
 40
1.0
176
     1
 90
        8
176
     1
 62
   257
176
     1
 40
1.0
176
     1
 90
        1
176
     1
 90
        6
176
     1
 90
        2
176
     1
 62
     7
176
     1
 90
        3
176
     1
 90
        0
176
     1
 90
        0
176
     1
290
     0
176
     1
 90
       13
176
     1
 40
0.0
176
     1
 90
        0
176
     1
290
     0
176
     1
290
     1
176
     1
290
     1
176
     1
290
     0
176
     1
290
     0
176
     1
290
     0
176
     1
290
     0
176
     1
290
     0
176
     1
290
     0
176
     1
 90
       50
176
     1
 40
0.0
176
     1
 40
1.0
176
     1
 90
        0
176
     1
 62
    18
176
     1
 90
       50
176
     1
 90
        3
176
     1
 62
     5
420
      255
176
     1
290
     0
176
     1
 90
       50
176
     1
 90
       50
176
     1
 90
       50
176
     1
290
     0
176
     1
 90
       50
176
     1
 62
   256
176
     0
 40
1.0
176
     0
 90
        2
176
     1
  1
strokes_ogs.tif
176
     1
290
     0
176
     1
 40
1.0
176
     1
 40
1.0
176
     1
  0
VISUALSTYLE
  5
42
102
{ACAD_REACTORS
330
2A
102
}
330
2A
100
AcDbVisualStyle
  2

 70
    27
177
     3
291
     0
 70
    58
 90
        2
176
     1
 90
        2
176
     1
 90
        1
176
     1
 90
        2
176
     1
 40
0.6
176
     1
 40
30.0
176
     1
 62
     7
420
 16777215
176
     1
 90
        0
176
     1
 90
        4
176
     1
 62
     7
176
     1
 62
   257
176
     1
 90
        1
176
     1
 90
        1
176
     1
 40
1.0
176
     1
 90
        8
176
     1
 62
   257
176
     1
 40
1.0
176
     1
 90
        1
176
     1
 90
        6
176
     1
 90
        2
176
     1
 62
     8
420
  7895160
176
     1
 90
        3
176
     1
 90
        0
176
     1
 90
        0
176
     1
290
     0
176
     1
 90
        5
176
     1
 40
0.0
176
     1
 90
        0
176
     1
290
     0
176
     1
290
     1
176
     1
290
     1
176
     1
290
     0
176
     1
290
     0
176
     1
290
     0
176
     1
290
     0
176
     1
290
     0
176
     1
290
     0
176
     1
 90
       50
176
     1
 40
0.0
176
     1
 40
1.0
176
     1
 90
        0
176
     1
 62
    18
176
     1
 90
       50
176
     1
 90
        3
176
     1
 62
     5
420
      255
176
     1
290
     0
176
     1
 90
       50
176
     1
 90
       50
176
     1
 90
       50
176
     1
290
     0
176
     1
 90
       50
176
     1
 62
   256
176
     0
 40
1.0
176
     0
 90
        2
176
     1
  1
strokes_ogs.tif
176
     1
290
     0
176
     1
 40
1.0
176
     1
 40
1.0
176
     1
  0
VISUALSTYLE
  5
41
102
{ACAD_REACTORS
330
2A
102
}
330
2A
100
AcDbVisualStyle
  2

 70
    26
177
     3
291
     0
 70
    58
 90
        2
176
     1
 90
        2
176
     1
 90
        1
176
     1
 90
        2
176
     1
 40
0.6
176
     1
 40
30.0
176
     1
 62
     7
420
 16777215
176
     1
 90
        1
176
     1
 90
       10
176
     1
 62
     7
176
     1
 62
   257
176
     1
 90
        2
176
     1
 90
        1
176
     1
 40
1.0
176
     1
 90
        8
176
     1
 62
   257
176
     1
 40
1.0
176
     1
 90
        1
176
     1
 90
        6
176
     1
 90
        2
176
     1
 62
     7
176
     1
 90
        3
176
     1
 90
        0
176
     1
 90
        0
176
     1
290
     0
176
     1
 90
        5
176
     1
 40
0.0
176
     1
 90
        0
176
     1
290
     0
176
     1
290
     1
176
     1
290
     1
176
     1
290
     0
176
     1
290
     0
176
     1
290
     0
176
     1
290
     0
176
     1
290
     0
176
     1
290
     0
176
     1
 90
       50
176
     1
 40
0.0
176
     1
 40
1.0
176
     1
 90
        0
176
     1
 62
    18
176
     1
 90
       50
176
     1
 90
        3
176
     1
 62
     5
420
      255
176
     1
290
     0
176
     1
 90
       50
176
     1
 90
       50
176
     1
 90
       50
176
     1
290
     0
176
     1
 90
       50
176
     1
 62
   256
176
     0
 40
1.0
176
     0
 90
        2
176
     1
  1
strokes_ogs.tif
176
     1
290
     0
176
     1
 40
1.0
176
     1
 40
1.0
176
     1
  0
VISUALSTYLE
  5
3E
102
{ACAD_REACTORS
330
2A
102
}
330
2A
100
AcDbVisualStyle
  2

 70
    23
177
     3
291
     0
 70
    58
 90
        2
176
     1
 90
        2
176
     1
 90
        3
176
     1
 90
        0
176
     1
 40
0.6
176
     1
 40
30.0
176
     1
 62
     7
420
 16777215
176
     1
 90
        2
176
     1
 90
        2
176
     1
 62
     7
176
     1
 62
     7
176
     1
 90
        1
176
     1
 90
        1
176
     1
 40
40.0
176
     1
 90
        8
176
     1
 62
     7
176
     1
 40
1.0
176
     1
 90
        1
176
     1
 90
        6
176
     1
 90
        2
176
     1
 62
     7
176
     1
 90
        3
176
     1
 90
        0
176
     1
 90
        0
176
     1
290
     0
176
     1
 90
        1
176
     1
 40
0.0
176
     1
 90
        0
176
     1
290
     0
176
     1
290
     1
176
     1
290
     1
176
     1
290
     0
176
     1
290
     0
176
     1
290
     0
176
     1
290
     0
176
     1
290
     0
176
     1
290
     0
176
     1
 90
       50
176
     1
 40
0.0
176
     1
 40
1.0
176
     1
 90
        0
176
     1
 62
    18
176
     1
 90
       50
176
     1
 90
        3
176
     1
 62
     5
420
      255
176
     1
290
     0
176
     1
 90
       50
176
     1
 90
       50
176
     1
 90
       50
176
     1
290
     0
176
     1
 90
       50
176
     1
 62
   256
176
     0
 40
1.0
176
     0
 90
        2
176
     1
  1
strokes_ogs.tif
176
     1
290
     0
176
     1
 40
1.0
176
     1
 40
1.0
176
     1
  0
VISUALSTYLE
  5
3F
102
{ACAD_REACTORS
330
2A
102
}
330
2A
100
AcDbVisualStyle
  2

 70
    24
177
     3
291
     0
 70
    58
 90
        1
176
     1
 90
        2
176
     1
 90
        2
176
     1
 90
        0
176
     1
 40
0.6
176
     1
 40
30.0
176
     1
 62
     7
420
 16777215
176
     1
 90
        2
176
     1
 90
        2
176
     1
 62
     7
176
     1
 62
     7
176
     1
 90
        1
176
     1
 90
        1
176
     1
 40
40.0
176
     1
 90
       11
176
     1
 62
     7
176
     1
 40
1.0
176
     1
 90
        1
176
     1
 90
        6
176
     1
 90
        2
176
     1
 62
     7
176
     1
 90
        6
176
     1
 90
        0
176
     1
 90
        0
176
     1
290
     0
176
     1
 90
        1
176
     1
 40
0.0
176
     1
 90
        0
176
     1
290
     0
176
     1
290
     1
176
     1
290
     1
176
     1
290
     0
176
     1
290
     0
176
     1
290
     0
176
     1
290
     0
176
     1
290
     0
176
     1
290
     0
176
     1
 90
       50
176
     1
 40
0.0
176
     1
 40
1.0
176
     1
 90
        0
176
     1
 62
    18
176
     1
 90
       50
176
     1
 90
        3
176
     1
 62
     5
420
      255
176
     1
290
     0
176
     1
 90
       50
176
     1
 90
       50
176
     1
 90
       50
176
     1
290
     0
176
     1
 90
       50
176
     1
 62
   256
176
     0
 40
1.0
176
     0
 90
        2
176
     1
  1
strokes_ogs.tif
176
     1
290
     0
176
     1
 40
1.0
176
     1
 40
1.0
176
     1
  0
VISUALSTYLE
  5
37
102
{ACAD_REACTORS
330
2A
102
}
330
2A
100
AcDbVisualStyle
  2

 70
    13
177
     3
291
     1
 70
    58
 90
        2
176
     1
 90
        2
176
     1
 90
        0
176
     1
 90
        0
176
     1
 40
0.6
176
     1
 40
30.0
176
     1
 62
     7
420
 16777215
176
     1
 90
        1
176
     1
 90
        4
176
     1
 62
     7
176
     1
 62
   257
176
     1
 90
        1
176
     1
 90
        1
176
     1
 40
1.0
176
     1
 90
       12
176
     1
 62
     7
176
     1
 40
1.0
176
     1
 90
        1
176
     1
 90
        6
176
     1
 90
        2
176
     1
 62
     7
176
     1
 90
        5
176
     1
 90
        0
176
     1
 90
        0
176
     1
290
     0
176
     1
 90
        1
176
     1
 40
0.0
176
     1
 90
        0
176
     1
290
     0
176
     1
290
     1
176
     1
290
     1
176
     1
290
     0
176
     1
290
     0
176
     1
290
     0
176
     1
290
     0
176
     1
290
     0
176
     1
290
     0
176
     1
 90
       50
176
     1
 40
0.0
176
     1
 40
1.0
176
     1
 90
        0
176
     1
 62
    18
176
     1
 90
       50
176
     1
 90
        3
176
     1
 62
     5
420
      255
176
     1
290
     0
176
     1
 90
       50
176
     1
 90
       50
176
     1
 90
       50
176
     1
290
     0
176
     1
 90
       50
176
     1
 62
   256
176
     0
 40
1.0
176
     0
 90
        2
176
     1
  1
strokes_ogs.tif
176
     1
290
     0
176
     1
 40
1.0
176
     1
 40
1.0
176
     1
  0
VISUALSTYLE
  5
30
102
{ACAD_REACTORS
330
2A
102
}
330
2A
100
AcDbVisualStyle
  2

 70
     5
177
     3
291
     0
 70
    58
 90
        0
176
     1
 90
        2
176
     1
 90
        0
176
     1
 90
        0
176
     1
 40
0.6
176
     1
 40
30.0
176
     1
 62
     7
420
 16777215
176
     1
 90
        1
176
     1
 90
        4
176
     1
 62
     7
176
     1
 62
   257
176
     1
 90
        1
176
     1
 90
        1
176
     1
 40
1.0
176
     1
 90
        0
176
     1
 62
   257
176
     1
 40
1.0
176
     1
 90
        1
176
     1
 90
        6
176
     1
 90
        2
176
     1
 62
     7
176
     1
 90
        3
176
     1
 90
        0
176
     1
 90
        0
176
     1
290
     0
176
     1
 90
        1
176
     1
 40
0.0
176
     1
 90
        0
176
     1
290
     0
176
     1
290
     1
176
     1
290
     1
176
     1
290
     0
176
     1
290
     0
176
     1
290
     0
176
     1
290
     0
176
     1
290
     0
176
     1
290
     0
176
     1
 90
       50
176
     1
 40
0.0
176
     1
 40
1.0
176
     1
 90
        0
176
     1
 62
    18
176
     1
 90
       50
176
     1
 90
        3
176
     1
 62
     5
420
      255
176
     1
290
     0
176
     1
 90
       50
176
     1
 90
       50
176
     1
 90
       50
176
     1
290
     0
176
     1
 90
       50
176
     1
 62
   256
176
     0
 40
1.0
176
     0
 90
        2
176
     1
  1
strokes_ogs.tif
176
     1
290
     0
176
     1
 40
1.0
176
     1
 40
1.0
176
     1
  0
VISUALSTYLE
  5
40
102
{ACAD_REACTORS
330
2A
102
}
330
2A
100
AcDbVisualStyle
  2

 70
    25
177
     3
291
     0
 70
    58
 90
        2
176
     1
 90
        2
176
     1
 90
        1
176
     1
 90
        1
176
     1
 40
0.5
176
     1
 40
30.0
176
     1
 62
     7
420
 16777215
176
     1
 90
        1
176
     1
 90
        0
176
     1
 62
     7
176
     1
 62
   257
176
     1
 90
        1
176
     1
 90
        1
176
     1
 40
1.0
176
     1
 90
        8
176
     1
 62
     7
176
     1
 40
1.0
176
     1
 90
        1
176
     1
 90
        6
176
     1
 90
        2
176
     1
 62
     7
176
     1
 90
        3
176
     1
 90
        0
176
     1
 90
        0
176
     1
290
     0
176
     1
 90
       13
176
     1
 40
0.0
176
     1
 90
        0
176
     1
290
     0
176
     1
290
     1
176
     1
290
     1
176
     1
290
     0
176
     1
290
     0
176
     1
290
     0
176
     1
290
     0
176
     1
290
     0
176
     1
290
     0
176
     1
 90
       50
176
     1
 40
0.0
176
     1
 40
1.0
176
     1
 90
        0
176
     1
 62
    18
176
     1
 90
       50
176
     1
 90
        3
176
     1
 62
     5
420
      255
176
     1
290
     0
176
     1
 90
       50
176
     1
 90
       50
176
     1
 90
       50
176
     1
290
     0
176
     1
 90
       50
176
     1
 62
   256
176
     0
 40
1.0
176
     0
 90
        2
176
     1
  1
strokes_ogs.tif
176
     1
290
     0
176
     1
 40
1.0
176
     1
 40
1.0
176
     1
  0
DICTIONARYVAR
  5
93
102
{ACAD_REACTORS
330
92
102
}
330
92
100
DictionaryVariables
280
     0
  1
1:1
  0
DICTIONARYVAR
  5
CC
102
{ACAD_REACTORS
330
92
102
}
330
92
100
DictionaryVariables
280
     0
  1
STANDARD
  0
DICTIONARYVAR
  5
CB
102
{ACAD_REACTORS
330
92
102
}
330
92
100
DictionaryVariables
280
     0
  1
STANDARD
  0
DICTIONARYVAR
  5
467
102
{ACAD_REACTORS
330
92
102
}
330
92
100
DictionaryVariables
280
     0
  1
Imperial24
  0
DICTIONARYVAR
  5
468
102
{ACAD_REACTORS
330
92
102
}
330
92
100
DictionaryVariables
280
     0
  1
Imperial24
  0
DICTIONARYVAR
  5
469
102
{ACAD_REACTORS
330
92
102
}
330
92
100
DictionaryVariables
280
     0
  1
1
  0
DICTIONARYVAR
  5
46A
102
{ACAD_REACTORS
330
92
102
}
330
92
100
DictionaryVariables
280
     0
  1
15
  0
DICTIONARY
  5
46F
330
D3
100
AcDbDictionary
280
     1
281
     1
  3
ACAD_XREC_ROUNDTRIP
360
483
  0
DICTIONARY
  5
46D
330
D2
100
AcDbDictionary
280
     1
281
     1
  3
ACAD_XREC_ROUNDTRIP
360
482
  0
DICTIONARY
  5
C5
330
6A
100
AcDbDictionary
280
     1
281
     1
  3
ACAD_ROUNDTRIP_2008_TABLESTYLE_CELLSTYLEMAP
360
481
  0
XRECORD
  5
483
102
{ACAD_REACTORS
330
46F
102
}
330
46F
100
AcDbXrecord
280
     1
102
DISPLAYNAME
  1
Imperial24
102
FLAGS
 90
        0
  0
XRECORD
  5
482
102
{ACAD_REACTORS
330
46D
102
}
330
46D
100
AcDbXrecord
280
     1
102
DISPLAYNAME
  1
Imperial24
102
FLAGS
 90
        0
  0
CELLSTYLEMAP
  5
481
102
{ACAD_REACTORS
330
C5
102
}
330
C5
100
AcDbCellStyleMap
 90
        3
300
CELLSTYLE
  1
TABLEFORMAT_BEGIN
 90
        5
170
     1
 91
        0
 92
    32768
 62
   257
 93
        1
300
CONTENTFORMAT
  1
CONTENTFORMAT_BEGIN
 90
        0
 91
        0
 92
        4
 93
        0
300

 40
0.0
140
1.0
 94
        5
 62
     0
340
11
144
0.25
309
CONTENTFORMAT_END
171
     1
301
MARGIN
  1
CELLMARGIN_BEGIN
 40
0.06
 40
0.06
 40
0.06
 40
0.06
 40
0.18
 40
0.18
309
CELLMARGIN_END
 94
        6
 95
        1
302
GRIDFORMAT
  1
GRIDFORMAT_BEGIN
 90
        0
 91
        1
 62
     0
 92
       -2
340
14
 93
        0
 40
0.045
309
GRIDFORMAT_END
 95
        2
302
GRIDFORMAT
  1
GRIDFORMAT_BEGIN
 90
        0
 91
        1
 62
     0
 92
       -2
340
14
 93
        0
 40
0.045
309
GRIDFORMAT_END
 95
        4
302
GRIDFORMAT
  1
GRIDFORMAT_BEGIN
 90
        0
 91
        1
 62
     0
 92
       -2
340
14
 93
        0
 40
0.045
309
GRIDFORMAT_END
 95
        8
302
GRIDFORMAT
  1
GRIDFORMAT_BEGIN
 90
        0
 91
        1
 62
     0
 92
       -2
340
14
 93
        0
 40
0.045
309
GRIDFORMAT_END
 95
       16
302
GRIDFORMAT
  1
GRIDFORMAT_BEGIN
 90
        0
 91
        1
 62
     0
 92
       -2
340
14
 93
        0
 40
0.045
309
GRIDFORMAT_END
 95
       32
302
GRIDFORMAT
  1
GRIDFORMAT_BEGIN
 90
        0
 91
        1
 62
     0
 92
       -2
340
14
 93
        0
 40
0.045
309
GRIDFORMAT_END
309
TABLEFORMAT_END
  1
CELLSTYLE_BEGIN
 90
        1
 91
        1
300
_TITLE
309
CELLSTYLE_END
300
CELLSTYLE
  1
TABLEFORMAT_BEGIN
 90
        5
170
     1
 91
        0
 92
        0
 62
   257
 93
        1
300
CONTENTFORMAT
  1
CONTENTFORMAT_BEGIN
 90
        0
 91
        0
 92
        4
 93
        0
300

 40
0.0
140
1.0
 94
        5
 62
     0
340
11
144
0.18
309
CONTENTFORMAT_END
171
     1
301
MARGIN
  1
CELLMARGIN_BEGIN
 40
0.06
 40
0.06
 40
0.06
 40
0.06
 40
0.18
 40
0.18
309
CELLMARGIN_END
 94
        6
 95
        1
302
GRIDFORMAT
  1
GRIDFORMAT_BEGIN
 90
        0
 91
        1
 62
     0
 92
       -2
340
14
 93
        0
 40
0.045
309
GRIDFORMAT_END
 95
        2
302
GRIDFORMAT
  1
GRIDFORMAT_BEGIN
 90
        0
 91
        1
 62
     0
 92
       -2
340
14
 93
        0
 40
0.045
309
GRIDFORMAT_END
 95
        4
302
GRIDFORMAT
  1
GRIDFORMAT_BEGIN
 90
        0
 91
        1
 62
     0
 92
       -2
340
14
 93
        0
 40
0.045
309
GRIDFORMAT_END
 95
        8
302
GRIDFORMAT
  1
GRIDFORMAT_BEGIN
 90
        0
 91
        1
 62
     0
 92
       -2
340
14
 93
        0
 40
0.045
309
GRIDFORMAT_END
 95
       16
302
GRIDFORMAT
  1
GRIDFORMAT_BEGIN
 90
        0
 91
        1
 62
     0
 92
       -2
340
14
 93
        0
 40
0.045
309
GRIDFORMAT_END
 95
       32
302
GRIDFORMAT
  1
GRIDFORMAT_BEGIN
 90
        0
 91
        1
 62
     0
 92
       -2
340
14
 93
        0
 40
0.045
309
GRIDFORMAT_END
309
TABLEFORMAT_END
  1
CELLSTYLE_BEGIN
 90
        2
 91
        1
300
_HEADER
309
CELLSTYLE_END
300
CELLSTYLE
  1
TABLEFORMAT_BEGIN
 90
        5
170
     1
 91
        0
 92
        0
 62
   257
 93
        1
300
CONTENTFORMAT
  1
CONTENTFORMAT_BEGIN
 90
        0
 91
        0
 92
        4
 93
        0
300

 40
0.0
140
1.0
 94
        2
 62
     0
340
11
144
0.18
309
CONTENTFORMAT_END
171
     1
301
MARGIN
  1
CELLMARGIN_BEGIN
 40
0.06
 40
0.06
 40
0.06
 40
0.06
 40
0.18
 40
0.18
309
CELLMARGIN_END
 94
        6
 95
        1
302
GRIDFORMAT
  1
GRIDFORMAT_BEGIN
 90
        0
 91
        1
 62
     0
 92
       -2
340
14
 93
        0
 40
0.045
309
GRIDFORMAT_END
 95
        2
302
GRIDFORMAT
  1
GRIDFORMAT_BEGIN
 90
        0
 91
        1
 62
     0
 92
       -2
340
14
 93
        0
 40
0.045
309
GRIDFORMAT_END
 95
        4
302
GRIDFORMAT
  1
GRIDFORMAT_BEGIN
 90
        0
 91
        1
 62
     0
 92
       -2
340
14
 93
        0
 40
0.045
309
GRIDFORMAT_END
 95
        8
302
GRIDFORMAT
  1
GRIDFORMAT_BEGIN
 90
        0
 91
        1
 62
     0
 92
       -2
340
14
 93
        0
 40
0.045
309
GRIDFORMAT_END
 95
       16
302
GRIDFORMAT
  1
GRIDFORMAT_BEGIN
 90
        0
 91
        1
 62
     0
 92
       -2
340
14
 93
        0
 40
0.045
309
GRIDFORMAT_END
 95
       32
302
GRIDFORMAT
  1
GRIDFORMAT_BEGIN
 90
        0
 91
        1
 62
     0
 92
       -2
340
14
 93
        0
 40
0.045
309
GRIDFORMAT_END
309
TABLEFORMAT_END
  1
CELLSTYLE_BEGIN
 90
        3
 91
        2
300
_DATA
309
CELLSTYLE_END
  0
ENDSEC
  0
EOF
